Me First And The Gimme GimmesHats Off To Larry Текст

0 Голосов
HATS OFF TO LARRY (INTRO & SOLO) - Me First And The Gimme Gimmes



By:Danny Bigham
this is just the intro and the solo

intro:
e|-7-9-7h9p7----7-----|
B|-7---------10---7---|
G|-7----------------7-|
D|-9------------------|
A|--------------------|
E|--------------------|

solo:
e|----15-12---------------------12>----15-14-|
B|-12-------12--0-7-8-10-11-12>-11>-12-------|
G|--------------------------11>--------------|
D|-------------------------------------------|
A|-------------------------------------------|
E|-------------------------------------------|===========

HATS OFF TO LARRY - Me First And The Gimme Gimmes


By: Davey Duke

Bm A G F#
Once I had a pretty girl, her name it doesnt matter

Bm A G
F#
She went away with another guy, and now he wont even look at her
7 times
e|---------------------------------------------------------------------------|
B|---------------------------------------------------------------------------|
G|---------------------------------------------------------------------------|
D|-4-4-4-4-------------------------------------------------------------------|
A|-4 4-4-4-------------------------------------------------------------------|
E|-2-2-2-2-------------------------------------------------------------------|

B D#
Hats off to Larry, He broke your heart
E Em
Just like you broke mine, when you said we'd never part
B D# E Em
He told you lies, now its your turn to cry cry cry
B F# B E B
Now that Larry said goodbye to you
F#
I know this may sound strange
G
I want ya back I think you'll change
A D C#
But theres one more thing I've got to say
B D#
Hats off to Larry, It may sound cruel
E Em
But you laughed at me when you said that we were through,
B D# E Em
You told me lies, now its your turn to cry cry cry
B F# B E B
Now that Larry said goodbye to you

Chords Through Solo
B A G F#

F#

B D#
Hats off to Larry, It may sound cruel
E Em
But you laughed at me when you said we were through
B D# E Em
You told me lies now its your turn to cry cry cry
B F# B E B
Now that Larry said goodbye to you
B E F#
goodbye to you

Hats off to larry

Ending Chord
e| ---------------------------------------------------------------------------|
B| 7--------------------------------------------------------------------------|
G| 8--------------------------------------------------------------------------|
D| 7--------------------------------------------------------------------------|
A| 9--------------------------------------------------------------------------|
E|-7--------------------------------------------------------------------------|
Другие песни: