MayonnaiseJopay (bефи) Текст

0 Голосов
Verse: 
G|---------------------|
D|----4---2------------|
A|--5---3--------------|
E|---------------------|

G|---------------------------------|
D|----4----------4----------4---2--|
A|--5---3------5---3------5---3----|
E|---------------------------------|

Refrain:
G|---------------------------|
D|---------------------------|
A|--00000000-22222222-3333---|
E|---------------------------|

Chorus:
G|-------------------------|
D|-------------------------|
A|-------------------------|
E|--3333-5555-77777-5555---|

Verse:
G|---------------------|
D|----4---2------------|
A|--5---3--------------|
E|---------------------|

Refrain:
G|---------------------------|
D|---------------------------|
A|--00000000-22222222-3333---|
E|---------------------------|

Chorus:
G|-------------------------|
D|-------------------------|
A|-------------------------|
E|--3333-5555-77777-5555---|

G - Am - Bm - Am

G|-----
D|-----
E|--2--

Chorus:
G|-------------------------|
D|-------------------------|
A|-------------------------|
E|--3333-5555-77777-5555---|

G|----------|
D|----4-----|
A|--5---3---|
E|----------|
Другие песни: