Маврин СергейСмутное время Текст, аккорды

0 Голосов
Intro:
RIFF 1:(Play 2 times)
[E-----------------------------------------9----------------------
B--12--11------9------------------12--11---------12--11----------
G----------11---------11--9--------------------------------------
D----------------------------------------------------------------
A----------------------------------------------------------------
E----------------------------------------------------------------

E---------------------------------------------9------------------
B--12--11------9------------------12--11-------------------------
G----------11---------11--9---------------11---------------------
D----------------------------------------------------------------
A----------------------------------------------------------------
E----------------------------------------------------------------]

RIFF 2:(sounds like w/wah on each note)
[E-------------------------------------------------------------------
B----------------------5----------------------------------5---------
G--7---6---4---6---7-------7---6----7---6---4---6---7-------6-------
D-------------------------------------------------------------------
A-------------------------------------------------------------------
E-------------------------------------------------------------------]

RIFF 3:
[Gtr. E---------------------------------------------------------------------------
B---------------------------------------------------------------------------
G---------------------------------------------------------------------------
D--2-h4-----4-----5-----2-h4------------2-h4-----4-----5--------------------
A--2--------2-----2-----2-----0--2--3---2--------2-----2-----------1~~~~~~--
E--------0-----0-----0------------------------0-----0-----0--2--3-----------

Gtr. E---------------------------------------------------------------------------
B---------------------------------------------------------------------------
G---------------------------------------------------------R-----------------
D--2-h4-----4-----5-----2-h4------------2-h4-----4-----5--E-----------------
A--2--------2-----2-----2-----0--2--3---2--------2-----2--S-----------------
E--------0-----0-----0------------------------0-----0-----T-----------------]

VERSE:
[Voice E----------------------------------------------------------------------------
B--7--------------------------7--7---7--8-----7----7--5----5------7----5-----
G-------4-----------------------------------------------------------------7--
D----------------------------------------------------------------------------
A----------------------------------------------------------------------------
Е- Смутное время призрак сывободы на коне.....

Gtr. E---------------------------------------------------------------------------
B---------------------------------------------------------------------------
G--------------------2------------------------------------------------------
D--4-----------------4----4h5p4-p0------------------------------------------
A--4-----------------4--------------2---------------2-----2-----4-----5-----
E--2--------2--2--2--2------------------3--------------3-----3-----3-----3--

Voice E---------------------------------------5------------------------------------
B--7--------------------------7--7---7---------8----7-8----7--5-----7--8--7--
G-------4--------------------------------------------------------------------
D----------------------------------------------------------------------------
A----------------------------------------------------------------------------
Е -le -no, slovno v kakom - to dikom sne -e. Mechetsya

Gtr. E---------------------------------------------------------------------------
B---------------------------------------------------------------------------
G--------------------2------------------------------------------------------
D--4-----------------4----4h5p4-p0------------------------------------------
A--4-----------------4--------------2---------------2-----2-----4-----5-----
Е--2--------2--2--2--2------------------3--------------3-----3-----3-----3--]
Другие песни: