Matchbook RomanceWish I Could Leave Текст, аккорды

0 Голосов
Artist-Matchbook Romance

Song-Wish I could leave
Tabber-ballin1600@yahoo.com (Kyle)

THIS IS JUST THE BEGINNING...I'LL ADD MORE LATER

E----------------------------------------------------------------------|
B----------------------------------------------------------------------|
G--------13--11-9--------------13-11-9--8------------------------------|
D-2-2----13--11-9-------9-9----13-11-9--8------------13--11-9----------|
A-2-2----11--9--7-------9-9----11-9--7--6---11-11----11--9--7----------|
e-0-0-------------------7-7-----------------9--9-----------------------|

E-----------------------------------------|
B-----------------------------------------|
G-----------------------------------------|
D--7-77777777777777-----------------------|
A--7-77777777777777-----------------------|
e--5-55555555555555-----------------------|
P.M........................ < -| gradually release palm mute

MATCHBOOK ROMANCE RULES!!!!
Другие песни: