Мастер33 жизни Текст

0 Голосов
Intro:
E|---------------------------------------------------------------|
B|---------------------------------------------------------3-----|
G|------------------------------------------------------4------4-|
D|---------------------------------------------------5-----------|
A|---3—3-6-5-3--------------------------------5------------------|
E|------------------6---4-----4-3-1------1-4-3-------------------|

E|---------------------------------------------------------------|
B|---------------------------------------------------------------|
G|---------------------------------------------------------------|
D|----------------------------------3----------------------------|
A|---3—3-6-5-3-----5--3-----------3--5------2--3-----------------|
E|------------------6---------4--1------------3------------------|

Cm G# Fm G B
Солнечным светом сердце сжег…
Cm G# Fm G B
Так часто бывает - людям невдомек!
C Fm B D#
Все мы - чужие… Кто же здесь свой?
D#
Ветер за спиной.

Cm G# Fm G B
Тридцать три жизни вымолить мечтал,
Cm G# Fm G B
Дали одну мне - спорить не стал,
C Fm B D#
Все эти жизни проживу в одной
D#
С ветром за спиной…

Am E
Я ухожу от себя
Am E
Я прихожу к себе,
Dm C
Пыль отряхну с рукава
Dm E
И снова - разбег.

Am E
Вверх по спирали тугой,
Am E
Вниз по чащобе глухой,
Dm C
Воля моя на износ,
Dm E
Я жив все равно!

Cm G# Fm G B
Что бы ни случилось со мною на земле,
Cm G# Fm G B
В небе отраженье находит по весне…
C Fm B D#
Ненависть нахлынет, грозой полоснет,
C Fm B D#
Боль любви вернет тридцать три жизни,
D#
тридцать три жизни...
Другие песни: