Marx RichardRight Here Waiting For You Текст

0 Голосов
Intro: 
e----3-3-1-0------0-1-0--------0-----------|
B---0-------3--3-3-------1-1-3--3-1-0------|
G--0----------------------------------2-0--|
D-0----------------------------------------|
A------------------------------------------|
E------------------------------------------|

e-3-3-1-0------0-1-0--------0-1-0----------|
B--------3--3-3-------1-1-3------3-1-0-1---|
G------------------------------------------|
D------------------------------------------|
A------------------------------------------|
E------------------------------------------|

Verse 1:
G D Am
Oceans apart, day after day
C G
And I slowly go insane
G D Am
I hear your voice, on the line
C G
But it doesn't stop the pain
G Am F
If I see you next to never
F G C
how can we say forever

Guitar 1 Refrain:
C G Am
Wherever you go, whatever you do
Am F C
I will be right here, waiting for you
C G Am
Whatever it takes, or how my heart breaks
Am F G C
I will be right here waiting for you

Guitar 2 Refrain:
E-3-3-1-0------0-1-0--------0-----------|
B--------3--3-3-------1-1-3--3-1-0------|
G----------------------------------2-0--|
D---------------------------------------|
A---------------------------------------|
E---------------------------------------|

E-3-3-1-0------0-1-0--------0-1-0--------|
B--------3--3-3-------1-1-3------3-1-0-1-|
G----------------------------------------|
D----------------------------------------|
A----------------------------------------|
E----------------------------------------|

G D Am C

Verse 2:
G D Am
I took for granted, all The times
C G
That I thought would last somehow
G D Am
I hear the laughter, I taste the tears
C G
But I can't get near you now
G Am F
Oh can't you see it baby,
F G C
You've got me going crazy

Guitar 1 Refrain:
C G Am
Wherever you go, whatever you do
Am F C
I will be right here, waiting for you
C G Am
Whatever it takes, or how my heart breaks
Am F G C
I will be right here waiting for you

Guitar 2 Refrain:
E-3-3-1-0------0-1-0--------0-----------|
B--------3--3-3-------1-1-3--3-1-0------|
G----------------------------------2-0--|
D---------------------------------------|
A---------------------------------------|
E---------------------------------------|

E-3-3-1-0------0-1-0--------0-1-0--------|
B--------3--3-3-------1-1-3------3-1-0-1-|
G----------------------------------------|
D----------------------------------------|
A----------------------------------------|
E----------------------------------------|

G D Am C

Bridge:
C Am F C
I wonder how we can survive, this romance
C Am F G
But in the end if I'm with you, I'll take the chance

Interlude: C G Am | Am F G C

G Am F
Oh you can't see it baby
F G C
You've got me going crazy

Guitar 1 Refrain:
C G Am
Wherever you go, whatever you do
Am F C
I will be right here, waiting for you
C G Am
Whatever it takes, or how my heart breaks
Am F G C
I will be right here waiting for you

Guitar 2 Refrain:
E-3-3-1-0------0-1-0--------0-----------|
B--------3--3-3-------1-1-3--3-1-0------|
G----------------------------------2-0--|
D---------------------------------------|
A---------------------------------------|
E---------------------------------------|

E-3-3-1-0------0-1-0--------0-1-0--------|
B--------3--3-3-------1-1-3------3-1-0-1-|
G----------------------------------------|
D----------------------------------------|
A----------------------------------------|
E----------------------------------------|
Другие песни: