Maroon 5Sunday Morning Текст

0 Голосов
Sunday Morning - Maroon 5

tab by (benjamintx@yahoo.com)


h - hammer-on


INTRO

Dm7 X C Dm7 X Cmaj7
E|----------------5-3--------------------5-3----------------
B|---6----5----5-----5-----6----5----5------5---------------
G|---5----4----5------5----5----4----4-------5--------------
D|---7----5----5-----------7----5----5----------------------
A|---5----5----3-----------5----5----3----------------------
E|----------------------------------------------------------



Dm7 X C
Sunday morning rain is falling
Dm7 X Cmaj7
Steal some covers share some skin
Dm7 X C
Clouds are shrouding us in moments unforgettable
Dm7 X Cmaj7
You twist to fit the mold that I am in
Dm7 X C
But things just get so crazy living life gets hard to do
Dm7 X Cmaj7
And I would gladly hit the road get up and go if I knew
Dm7 X C
That someday it would lead me back to you
Dm7 X C
That someday it would lead me back to you



CHORUS
Dm7 X Cmaj7
That may be all I need
Dm7 X Cmaj7
In darkness she is all I see
Dm7 X Cmaj7
Come and rest your bones with me
Dm7
Driving slow on Sunday morning
X Cmaj7
And I never want to leave




Dm7 X C
Fingers trace your every outline
Dm7 X Cmaj7
Paint a picture with my hands
Dm7 X C
Back and forth we sway like branches in a storm
Dm7 X Cmaj7
Change of weather still together when it ends



CHORUS



SOLO
E|-------------------------------------------------------------
B|-------------------------------------------------------------
G|-------------------------------------------------------------
D|------1-2----------------------------------------------------
A|---3--------3-2-0---2h3----2h3----2h3--------------0-3-3-0---
E|------------------------3------2------1----1-3---3-----------


X
E|-------------------------------------------------------------
B|-------------------------------------------------------------
G|---------------------------------------------------5---6-----
D|------1-2------------------------------------------5---5-----
A|---3--------3-2-0---2h3----2h3----2h3--------------3---4-----
E|------------------------3------2------1----1-3---------------



Dm7 X Cmaj7
But things just get so crazy living life gets hard to do
Dm7 X Cmaj7
Sunday morning rain is falling and I'm calling out to you
Dm7 X C
Singing someday it'll bring me back to you
Dm7 X C
Find a way to bring myself back home to you


And you may not know
Dm7 X Cmaj7
That may be all I need
Dm7 X Cmaj7
In darkness she is all I see
Dm7 X Cmaj7
Come and rest your bones with me
Dm7
Driving slow on Sunday morning
X Cmaj7.....and so on
Driving slow?
Другие песни: