Marilyn MansonThe Fight Song Текст

0 Голосов
----------------------------------------------------------------------------

THE FIGHT SONG - Marilyn manson
----------------------------------------------------------------------------

Tabbed By : dorris
e-mail: cleandirt2001@hotmail.com

comments:mines is accurate and gd so rate it plz

MAIN RIFF/CHORUS
G|----------------------------| G|------------------------|
D|----------------------------|3X D|------------------------|1X
A|------------------0--0--0---| A|------------------------|
E|---2--2--0--0--2------------| E|--2--2--0--0--2--0--0---|

VERSE (NO BASS)

THEN DO CHORUS

THEN
G|-------------------------------------------------------------------------|
D|-2--2--2--2--2--2--2--2--0--0--0--0--0--0--0--0--2--2--2--2--2--2--2--2--|
A|-------------------------------------------------------------------------|
E|-------------------------------------------------------------------------|

G|-------------------------0--0--0--0--0--0--0--0--------------------------|
D|-0--0--0--0--0--0--0--0--------------------------2--2--2--2--2--2--2--2--|
A|-------------------------------------------------------------------------|
E|-------------------------------------------------------------------------|

G|---------------------------------------------------|
D|--0--0--0--0--0--0--0--0---------------------------|THEN BACK ONTO
A|--------------------------0--0--0--0--0--0--1--1---|MAIN RIFF/CHORUS
E|---------------------------------------------------|

THEN
G|-------------------------------------------------------------------------|
D|-2--2--2--2--2--2--2--2--0--0--0--0--0--0--0--0--2--2--2--2--2--2--2--2--|
A|-------------------------------------------------------------------------|
E|-------------------------------------------------------------------------|

G|-------------------------------------------------------------------------|
D|--0--0--0--0--0--0--0--0/5--5--5--5--5--5--5--5--2--2--2--2--2--2--2--2--|
A|-------------------------------------------------------------------------|
E|-------------------------------------------------------------------------|

G|----------------------------------------------------|
D|--0--0--0--0--0--0--0--0----------------------------|BACK ONTO CHORUS
A|--------------------------0--0--0--0--0--0--1--1----|
E|----------------------------------------------------|

THEN
G|-------------------------------------------------------------------------|
D|--3--3--3--3--3--3--3/5--5--0--0--0--0--0--0--3--3--3--3--3--3--3--3---|
A|-------------------------------------------------------------------------|
E|-------------------------------------------------------------------------|

G|-------------------------------------------------------------------------|
D|--0--0--0--0--0--0--0--0--3--3--3--3--3--3--3--5--5--0--0--0--0--0--0--|
A|-------------------------------------------------------------------------|
E|-------------------------------------------------------------------------|

G|-------------------------------------------------|
D|--3--3--3--3--3--3--3--3--0--0--0--0--2--2--2--2-|
A|-------------------------------------------------|
E|-------------------------------------------------|

REPEAT CHORUS AND LISTEN TO THE SONG FOR NUMBER OF TIMES

THERE YA GO

| / slide up
| slide down
| h hammer-on
| p pull-off
| ~ vibrato
| + harmonic
| x Mute note
============================================================================
Другие песни: