Marilyn MansonSweet Dreams (solo ver 2) Текст

0 Голосов
-----------11-----------------------

---11--13------11b(1/2)--11b~~~-----
------------------------------------
------------------------------------
------------------------------------
------------------------------------

---------------------------------------------
---------------------------------------------
-----------------------------------7s8-------
--10--8-10---------------------10------------
------------9b-9r-9b-9r-9b-9r------------8br-
---------------------------------------------

-----------------------11--13-13br----8~~
--------------------11-------------------
-------7br--10-10br----------------------
-----------------------------------------
--10-------------------------------------
-----------------------------------------
-----------------------------------------
Другие песни: