Marilyn MansonSweet Dreams (solo) Текст

0 Голосов
Mini Solo 1:
-------------------------------------------------------------------
-------3b3r-------3b3r-------3b3r-------6b6r-------3b3r-------3b3r-
-5-3-5------5-3-5------5-3-5------5-3-5------5-3-5------5-3-5------
-------------------------------------------------------------------
-------------------------------------------------------------------
-------------------------------------------------------------------

Main solo:
-6-8-11-6-8-6--------------------------------------------------------
--------------7b7r--------------------------------------3-4-3--4-6-8-
-------------------5-3-5----------------------------3-5--------------
-------------------------4--4-3h4p3h4--------3-4b4r------------------
--------------------------------------3--3-5-------------------------
---------------------------------------------------------------------

-6-8-6-11-13-14b14r----
--------------------13-
-----------------------
-----------------------
-----------------------
-----------------------

Ending Solo:
-----------------------------------------8-6-8-10b10r-8-6-8-13b13r-
-------3b3r-------6b6r-------3b3r----------------------------------
-5-3-5------5-3-5------5-3-5------5-3-5----------------------------
-------------------------------------------------------------------
-------------------------------------------------------------------
-------------------------------------------------------------------

-8-6-8-10b10r-8-6-8-10b10r-13b13r-13b13r-13b13r-13b13r-10b10r-3--------
---------------------------------------------------------------------3-
-----------------------------------------------------------------------
-----------------------------------------------------------------------
-----------------------------------------------------------------------
-----------------------------------------------------------------------
Другие песни: