Marilyn MansonNew Model No 15 Текст

0 Голосов
ALBUM: Mechanical Animals
TRANSCRIBED BY: Tom Hippie
TUNING: standard tuning (E,A,D,G,B,E)

INTRO:

E----------------------------------------|
B----------------------------------------|
G----------------------------------------|
D----------------------------------------|
A----------------------------------------|
E|--0-0-0-0-0-0-0-0-0-0-0-0-0-0-0-0-0-0-0-0-0--------|

MAIN RIFF/CHORUS:


E------------------------------------------------|
B------------------------------------------------|
G------------------------------------------------|
D|--4--4-2-4--4-2---4-4-2-4---4-2--4-4-2-4---4-2-4-4-2--777--|
A|--4--4-2-4--4-2---4-4-2-4---4-2--4-4-2-4---4-2-4-4-2--777--|
E|--2--2-0-2--2-0---2-2-0-2---2-0--2-2-0-2---2-0-2-2-0--555--|

1ST VERSE: (when he sings, don't play anything, but after that, you play this)

E------------------------------------------------|
B------------------------------------------------|
G------------------------------------------------|
D|--4--4-2-4--4-2---4-4-2-4---4-2--4-4-2-4---4-2-4-4-2--777--|
A------------------------------------------------|
E------------------------------------------------|

PRE-CHORUS RIFF:

E---------|
B---------|
G|--6----9----4----2--|
D|--6----9----4----2--|
A|--4----7----2----0--|
E---------|

2ND VERSE: (in the middle you go something like this)

E--------------|
B----------15--|
G|--14~-11----14~-11-------|
D--------------|
A--------------|
E--------------|

BRIDGE: (part where he sings "pitifully predictable..")

E------------------------------|
B------------------------------|
G------------------------------|
D|--9---7---9---5---7----------------------|
A|--9---7---9---5---7-----play it 2 times--|
E|--7---5---7---3---5----------------------|

INTERLUDE: (part where he sings "don't let them know how far you go..")

E---------------------|
B---------------------|
G---------------------|
D|--4-4--------4-4----------------|
A|--4-4--------4-4---- etc. ------|
E|--2-2--------2-2----------------|

OUTRO:

E-----------|
B-----------|
G-----------|
D------4-4--|
A------4-4--|
E|--0000000000000--2-2--|
Другие песни: