Marilyn MansonIv-tv Текст

0 Голосов
Reverend Twichet Tate

rev_twichet@yahoo.com

Marilyn Manson
IVTV

Intro/Pre-chorus/Chorus
A|-5-5-5555--2-2-2222--5-5-5555--2-2-2222-|
E|----------------------------------------|

Intro/Pre-chorus/Chorus con't
A|-------------------------------------------|
E|-2-2-2222///5-5-55552-2-2222///5-5-5555-|

Verse
Fig. 1
D|---------0--|
A|-2-2-2-2---2|
E|------------|

Fig. 2
D|------------|
A|---------0--|
E|-2-2-2-2---2|
Другие песни: