Marilyn MansonHighway To Hell Текст

0 Голосов
Highway to Hell - Marilyn Manson


By: Jon Craven (i_apathy@hotmail.com)
For questions, comments, feedback, an outline of the timing, write the above
address.

Note:
-Played with a pick.

(4/4)(130 bpm)
Tuned a half step down

* - note held for an eighth beat
/ - slide up
- slide down
|-R-| - rest for one measure
R - quarter rest

Pre-chorus: (0:57)
|----------------|-----------------|
|----------------|-----------------|
|----------------|-----------------|
|0-*-*-*-*-*-*-*-|*-*-*-*-*-*-/12-|

Chorus: (1:01)
|------------------------|------------------------|------------------------|
|------------------------|------------------------|------------------------|
|------------------------|------------------------|------------------------|
|17-17-17-17-17-17-17-17-|15-15-15-15-15-15-15-15-|17-17-17-17-17-17-17-17-|

|------------------------|------------------------|------------------------|
|------------------------|------------------------|------------------------|
|------------------------|------------------------|------------------------|
|15-15-15-15-15-15-15-15-|17-17-17-17-17-17-17-17-|15-15-15-15-15-15-15-15-|

|------------------------|-----------------|----------------|
|------------------------|-----------------|----------------|
|------------------------|-----------------|----------------|
|17-17-17-17-17-17-17-17-|10-*-*-*-*-*-*-*-|*-*-*-*-*-/----|

Rest for four measures

Verse: (1:25)
|---|---|---|-----------------|---|---|---|-----------------|---|---|---|
|---|---|---|-----------------|---|---|---|-----------------|---|---|---|
|---|---|---|------------14--|---|---|---|------------14--|---|---|---|
|-R-|-R-|-R-|R---R---R--------|-R-|-R-|-R-|R---R---R--------|-R-|-R-|-R-|

|-----------------|---|---|---|----------------|-----------------|
|-----------------|---|---|---|----------------|-----------------|
|------------14--|---|---|---|----------------|-----------------|
|R---R---R--------|-R-|-R-|-R-|0-*-*-*-*-*-*-*-|*-*-*-*-*-*-/12-|

Chorus
Rest for nineteen measures

Outro pt.1: (x11)(2:48)
|------------------------|-----------------------|
|------------------------|-----------------------|
|------------------------|------------------14--|
|17-17-17-17-17-17-17-17-|15-15-15-15-15-15------|

Outro pt.2: (3:28) (hold till end)
|------------------------|-----------------|
|------------------------|-----------------|
|------------------------|-----------------|
|17-17-17-17-17-17-17-17-|10-*-*-*-*-*-*-*-|
Другие песни: