Marilyn MansonGreat Big White World Текст

0 Голосов
TUNING: standard tuning (E,A,D,G,B,E)



PART 1:

E-----------------------------|
B-----------------------------|
G-----------------------------|
D|--8/10---13--12~~~----8/10---13--12-10--|
A-----------------------------|
E-----------------------------|

PART 2:

E-------------------------------------|
B-------------------------------------|
G-------------------------------------|
D|--10-13-12-10-13-12-10-13-9-13-12-9-13-12-9-13--|
A-------------------------------------|
E-------------------------------------|

E----------------------------------------|
B----------------------------------------|
G----------------------------------------|
D|-----13-12----13-12----13----13-12----13-12----13--|
A|--12-------12-------12----11-------11-------11-----|
E----------------------------------------|

PART 3:

E-----------------------------------------|
B-----------------------------------------|
G-------------------------------------17--|
D|--10--13--15--15b--13--10--10--13--15--15u--13------|
A-----------------------------------------|
E-----------------------------------------|

PART 4: (I didn't write out the number of times to play each
note, you should be able to figure it out)

E--------------------------|
B--------------------------|
G--------------------------|
D|--3----6-------10-----8-----6-----5--|
A|--3----6-------10-----8-----6-----5--|
E|--1----4-------8------6-----4-----3--|

PART 5:

E--------------------------------------------|
B--------------------------------------------|
G--------------------------------------------|
D|--3---6----10---8----3---6-------10-----8-----6-----5--|
A|--3---6----10---8----3---6-------10-----8-----6-----5--|
E|--1---4----8----6----1---4-------8------6-----4-----3--|
Другие песни: