Mariah CareyBeautiful (ft Miguel) Текст, аккорды

0 Голосов
Intro:
e|------------------------------------|
B|------------------------------------|
G|------------------------------------|
D|--2~---4--4~---2--2/4--4/6--6-4--2--|
A|------------------------------------|
E|------------------------------------|

e|-----------------------------|
B|-----------------------------|
G|-----------------------------|
D|-----4--4~-------4--4-2--2---|
A|-----------------------------|
E|--5~-------5-5~--------------|

e|-----------------------------|
B|-----------------------------|
G|-----------------------------|
D|------4--4~---------4--4-----|
A|--2~---------2--2~--------2--|
E|-----------------------------|

e|-------------------------------|
B|-------------------------------|
G|-------------------------------|
D|-----6--6-4--4------4--4-2--2--|
A|--4~---------------------------|
E|-----------------5~------------|

[Miguel]
E
Hop on the back of my bike
A
Let the good wind blow through your hair
B
With an ass like that
B
And a smile so bright
C#m
Oh, you're killing me
A
You know it ain't fair

E
Ride on

Through the middle of the night
A
Let the moonlight kiss your skin
B
When you dance like that
B
Your jeans so tight
C#m
Oh, you're killing me
A
Baby, Do it again

Chorus:
E
You're beautiful
A
And your mind is ing beautiful
B
And I can't pretend that
C#m A
That doesn't mean a thing to me, to me
E
You're beautiful
A
Good Lord, you're ing beautiful
B
And I can't pretend that
F#m G#/A - A (quick)
That doesn't mean a thing to me, to me
B
Yeah, Yeah

[Mariah]
E
I like when you run red lights
A
Don't stop 'til you thrill me
A
Oh, how you thrill me
B
Always in control

How you Do it, I don't know
F#m
But I don't care
G#/A - A (quick) B
Take me anywhere

Chorus:
E
'Cause it's beautiful
A
Ooh, you make me feel undressable
B
And I can't pretend
C#m A
That doesn't mean a thing to me, to me
E
You're beautiful
A
And your mind is ing beautiful
B
And I can't pretend that
C#m A
That doesn't mean a thing to me, to me
E
You're beautiful
A
Good Lord, you're ing beautiful
B
And I can't pretend that
F#m G#/A - A (quick)
That doesn't mean a thing to me, to me
B
Yeah, Yeah
E
Yeah

Outro = Intro: x2
e|------------------------------------|
B|------------------------------------|
G|------------------------------------|
D|--2~---4--4~---2--2/4--4/6--6-4--2--|
A|------------------------------------|
E|------------------------------------|

e|-----------------------------|
B|-----------------------------|
G|-----------------------------|
D|-----4--4~-------4--4-2--2---|
A|-----------------------------|
E|--5~-------5-5~--------------|

e|-----------------------------|
B|-----------------------------|
G|-----------------------------|
D|------4--4~---------4--4-----|
A|--2~---------2--2~--------2--|
E|-----------------------------|

e|-------------------------------|
B|-------------------------------|
G|-------------------------------|
D|-----6--6-4--4------4--4-2--2--|
A|--4~---------------------------|
E|-----------------5~------------|
Другие песни: