Mad CaddiesWet Dog Текст

0 Голосов
G------------------------------------------------------------------|

D------------------------------------------------------------------|
A-------------6--4--4--4--6--7--7--6--4-5-4------------------------|
E--4--4--7------------------------------------7--2-2---2/4--4--7---|

G------------------------------------------------------------------|
D------------------------------------------------------------------|
A--6----4--4--4--6*------------------------------------------------|
E------------------------2-2---2*---2-2-2-2------------------------|

*I know my tab is a little personalized but it remains similar to for and
i'm pretty sure it's close to perfect you may just have to play the notes
a little differently than I did to get it to sound like the Mad Caddies
do (i.e. i'm not sure if he slide and i'm not sure what notes he lets ring,
i just do what i think sounds best)*

p.s.to get it to sounds like the caddies you have to be able to play it really smoothly.

and questions/comments/corrections etc. e-mail me at rage090@hotmail.com
Другие песни: