M83New Map Текст, аккорды

0 Голосов
Intro:
e |-----------------------------------|
B |-9--11--9----(x2)-9--11--9--12-----|
G |-----------9-----------------------|
D |-----------------------------------|
A |-----------------------------------|
E |-----------------------------------|

e |-----------------------------------|
B |-9--11--12--9--(x2)-9--11--9--12---|
G |-----------------------------------|
D |-----------------------------------|
A |-----------------------------------|
E |-----------------------------------|

Background Guitar:
e |---------------------------|
B |-7--5--(x3)-5h7--5/9-------|
G |---------------------------|
D |---------------------------|
A |---------------------------|
E |---------------------------|

Verse 1:
e |--x-----x---------|
B |--x-----x---------|
G |--x-----x---------|
D |--7-----4---------|
A |--7-----4---------|
E |--5/----2---------|

There's a hole in your heart, begging for adventure
Play yourself a new track, set traps for the future

Interlude:
e |--x------x-------------------|
B |--x------x-------------------|
G |--7------9-------------------|
D |--7------9-------------------|
A |--5------7-------------------|
E |--x------x-------------------|

On your own
Can you Do it
The unknown
Can you face it
Chorus

e |-----------------------------------|
B |-9--11--9----(x2)-9--11--9--12-----|
G |-----------9-----------------------|
D |-----------------------------------|
A |-----------------------------------|
E |-----------------------------------|

e |-----------------------------------|
B |-9--11--12--9--(x2)-9--11--9--12---|
G |-----------------------------------|
D |-----------------------------------|
A |-----------------------------------|
E |-----------------------------------|

Background Guitar:
e |---------------------------|
B |-7--5--(x3)-5h7--5/9-------|
G |---------------------------|
D |---------------------------|
A |---------------------------|
E |---------------------------|

Shifting desire, shifting desire, shifting desire...

Verse 2:
e |--x-----x---------|
B |--x-----x---------|
G |--x-----x---------|
D |--7-----4---------|
A |--7-----4---------|
E |--5/----2---------|

Rules of conformity, heavy clouds of reason
They're hiding the beauty of your free distortions

Interlude:
e |--x------x-------------------|
B |--x------x-------------------|
G |--7------9-------------------|
D |--7------9-------------------|
A |--5------7-------------------|
E |--x------x-------------------|

On your own
Can you Do it
The unknown
Can you face it
With your soul, now you see it
The landscape is infinite

Chorus

Outro (until the end):
e |------------------------------------|
B |------------------------------------|
G |------------------------------------|
D |------------------------------------|
A |------------------------------------|
E |--5--0--2--0--5---5---7---5---2--0--|

e |--9------8-----9----11----------|
B |--10-----9-----10---12----------|
G |--11-----10----11---13----------|
D |--11-----10----11---13----------|
A |--9------8-----9----11----------|
E |--x------x-----x----x-----------|
Другие песни: