M83Midnight City Текст, аккорды

0 Голосов
Intro chords: G - Bm - A - Em - (F#m)

e|-14---------14--|
B|----15-12-------|
G|----------------|
D|----------------|
A|----------------|
E|----------------|

G Bm
waiting in a car
A Em
waiting for a ride in the dark
G Bm
midnight city crawls
A Em
you can see a ? in ?

G - Bm - A - Em - (F#m)

e|-14---------14--|
B|----15-12-------|
G|----------------|
D|----------------|
A|----------------|
E|----------------|

It repeats over again.
Другие песни: