M83Kim And Jessie Текст

0 Голосов
INTRO:
Bb C
RIFF(transcribed for guitar)
E|-18-17---20--20-18-17------|
B|-----------------------18--|
G|---------------------------|
D|---------------------------|
A|---------------------------|
E|---------------------------|

VERSE:
(no guitar, but the same Bb C chords are played electronically)
Kim and Jessie
They have a secret world
In the twilight
Kids of the woods
They are crazy about romance and illusions

CHORUS:
Bb C
(another guitar plays the same with power chords,
and switches up to D before returning to the Bb)
Somebody lurks in the shadows
Somebody whispers
Somebody lurks in the shadows
Yeah, yeah, yeah

VERSE:
Dream dressed in blue
It's all they need for now and forever
Dazed by the moon
They shatter their heartbeats
With singing

CHORUS:
Somebody lurks in the shadows
Somebody whispers
Somebody lurks in the shadows
Yeah, yeah, yeah

Somebody lurks in the shadows
Somebody whispers
Somebody lurks in the shadows
Yeah, yeah, yeah

BRIDGE:
Dm Bb
They need to drown out out all the voices
Dm Bb
They pass a bottle like it is water
C Bb
And soon they'll be flying
C Bb
They are gods, they are lightning!

CHORUS

OTHER RIFF #2 (3:11)
E|-------11-------|
B|-11s13----13-11-|
G|----------------|
D|----------------|
A|----------------|
E|----------------|

OTHER RIFF #3 (4:01)
E|--------------------------------------------------|
B|--------------------------------------------------|
G|-2-/-7~--14-12~--14-9~--14-12~--9h10p9h10p9h10-7~-|
D|--------------------------------------------------|
A|--------------------------------------------------|
E|--------------------------------------------------|

E|------------------------------------------|
B|------------------------------------------|
G|-14-12~--14-9~--14-12~--9h10p9h10p9h10-7~-|
D|------------------------------------------|
A|------------------------------------------|
E|------------------------------------------|

OTHER RIFF #4 (4:29)
E|-----8----------8-----|
B|--------8----------8--|
G|----------------------|
D|--6----------8--------|
A|----------------------|
E|----------------------|
Другие песни: