M83In Church Текст, аккорды

0 Голосов
"Renaissance lute" tuning
EADF#BE

1 + 2 + 3 + 4 + 1 + 2 + 3 + 4 + 1 + 2 + 3 + 4 + 1 + 2 + 3 + 4 +
e |-------------------------------------------------------------------|
B |--5-----8-----5-------------------5-------3-------5-------3--------|
F#|----5---5---5---5---5---5-8-5---5---5---5---0---0---0---0---0---0--|
D |------5---5-------5---5-------5-------5-------0-------0-------0----|
A |--7-----------7-----------7-------7-------5-------7-------5--------|
E |-------------------------------------------------------------------|

1 + 2 + 3 + 4 + 1 + 2 + 3 + 4 + 1 + 2 + 3 + 4 + 1 + 2 + 3 + 4 +
e |-------------------------------------------------------------------|
B |--0-----------0-------------------0-------3-------0-------8--------|
F#|----0---8---0---0---0---0---0---0---0---0---0---0---0---0---0---0--|
D |------0---0-------0---0---7---0-------0---0---0-------0-------0----|
A |----------------------------------------------------------10-------|
E |--7-----------7-----------7-------7---------------7----------------|
Другие песни: