Lyndsay DiariesJosephine Текст

0 Голосов
Lyndsay Diaries - Josephine 


Intro/Verse
e|-----------------------------------------------------------|
B|-----------------------------------------------------------|
G|--9-9-9-9-9-9-9-8-8-8-8-8-8-8-8-8-8-2-2-2-2-2-2-2-2-2-2-2--|
D|--9-9-9-9-9-9-9-9-9-9-9-9-9-9-9-9-9-2-2-2-2-2-2-2-2-2-2-2--|
A|--7-7-7-7-7-7-7-6-6-6-6-6-6-6-6-6-6-0-0-0-0-0-0-0-0-0-0-0--|
E|-----------------------------------------------------------|
Chorus
e|-----------------------------------------------------------|
B|--5-5-5-5-7-7-7-7-7---------------7-7-7--------------------|
G|--6-6-6-6-8-8-8-8-8-9-9-9-9-9-9-9-8-8-8-2-2-2-8-8-8-9-9-9--|
D|--6-6-6-6-8-8-8-8-8-9-9-9-9-9-9-9-9-9-9-2-2-2-8-8-8-9-9-9--|
A|--4-4-4-4-6-6-6-6-6-7-7-7-7-7-7-7-6-6-6-0-0-0-6-6-6-7-7-7--|
E|-----------------------------------------------------------|

thats it, on the bridge its the same chords just slower.
Другие песни: