Lynch StephenHalf A Man Текст, аккорды

0 Голосов
This song is really simple and easy.


Capo on 3rd fret

E G D C
E|-0----3----2----0-|
B|-0----0----3----1-|
G|-1----0----2----0-|
D|-2----0----0----2-|
A|-2----2----X----3-|
E|-0----3----X----X-|

Intro

E G E G
E G D C

Verse

E G E G
E G D C x2

Chorus

E G E G
E G D C E

last part of chorus

D C E E
E|---2----0-----0-0-|
B|---3----1-----0-0-|
G|--2-2---0-----1-1-|
D|-0-----2-2---2--2-|
A|------3-----2---2-|
E|-----------0----0-|

Bridge

E G E G
E G D C


Intro
Verse
Chorus
Verse
Chorus
Bridge
Chorus
Другие песни: