Лора БочароваШансон де Жест Текст, аккорды

0 Голосов
Intro: Em C D Em Am C Bm Em

Am C D Em
Не на золоте полей, чья трава густа,
A C D
Не у моря, где на скалах сверкает соль,
Gm F Bb
А у вражеского рва, на краю моста
C D
Наконец нашел тебя я, о мой король.
G F
Из десятка тысяч лиц, через сотни лет
G B B7
Я б узнал тебя, король, сквозь печати бед -
Em Am D7/F# G
По сиянию волос, где застыл рассвет,
C7 B7 Em
Я узнал. И на уста наложил запрет.

Am C D Em
Не узнать теперь другим, как ты был убит,
A C D
Как подвел тебя твой голос, порвав струну,
Gm Cm F Bb
Что за кубок до конца был тобой испит,
Eb D G
Не проведать никому, что ты был в плену.
G F
Я и так уже предвижу, как верный скальд
G B
Обрисует твою стать и изгиб бровей,
Em Am D7/F# G
И, настроив на лады деревянный альт,
C7 B7 Em
Понесет тебя, как взятый в бою трофей.

Am C D Em
Прикрываясь твоим именем на пути,
A C D
Будет нищий хлеб выпрашивать на ветру,
Gm F Bb
И герольды будут доблесть твою нести,
D# D
И истреплют, словно вражескую хоругвь.
G Bb
Менестрели налетят, как мошка на свет,
G B B7
И такого напоют про любовь и боль,
Em
Что не выяснить уже - жил ты или нет...
C7 B7 Em
Не узнать тебя боюсь я, о мой король.

Am C D Em
Я бы вынес на руках тебя, государь,
A C D
На простор, где волны пенятся об обрыв,

Gm C D(V) Eb
Но сложить тебе курган - погребальный дар -
C(III) B B7
Невозможно, тайну гибели не раскрыв.

Am C D Em
Так лежи, о, мой король, средь сожженных трав
A C D
Возле черного моста, где ты принял бой.
G B C(III)
Крылья западных ветров отпоют твой прах,
Am Bm Em
Чтоб и в смерти ты остался самим собой.


E||--7--7--7--5--3--2--0-----|-----0--------3--2--0-----|
B||--------------------------|--1-----3-----------------|
G||-----------------------0--|-----------2--------------|
D||--------------------------|--------0--------------2--|
A||--------0-----------3-----|--------------------2-----|
E||--------------------------|--------------------------|

--------------------0-----|-----0--------3--2--0----|
--0--0--1--0--1--3--------|--1-----3----------------|
-----------------------0--|-----------2-------------|
--------------------------|--------0----------------|
--------0-----------3-----|--------------------2----|
--------------------------|-------------------------|

--7--7--7--5--3--2--0-----|-----0--------3--2--0-----|
--------------------------|--1-----3-----------------|
-----------------------0--|-----------2--------------|
--------------------------|--------0--------------2--|
--------0-----------3-----|--------------------2-----|
--------------------------|--------------------------|

--------------------0-----|-----0--------0--2--0----||
--0--0--1--0--1--3--------|--1-----3----------------||
-----------------------0--|-----------2-------------||
--------------------------|--------0----------------||
--------0-----------3-----|--------------------2----||
--------------------------|-------------------------||
Другие песни: