Loeb LisaGarden Of Delights Текст

0 Голосов
#----------------------------------PLEASE NОТЕ---------------------------------#

#This file is the author's own work and represents their interpretation of the #
#song. You may only use this file for private study, scholarship, or research. #
#------------------------------------------------------------------------------#

*** SОNG: Garden of Delights Author: Lisa Loeb and Nine Stories ***
*** Album: Tails off of Geffen Records ***
*** Transcriber: Adam Rogoyski apoc@laker.net ***

This is Garden Оf Delights by Lisa Loeb and Nine Stories off of the album
Tails. This is my interpretation of the song.

Most all of the song uses this same rhythm that starts off the song. I
tried, i mean i really tried my best to show it as best and simply as I
could but it's hard to show. I mean the rhythm feels just natural when
you get it right. Just listen to what she plays.

The first two lines is the accoustic intro

D A

1 + 2 + 3 + 4 + 1 + 2 + 3 + 4 +
e----------------------------------------------------------------------------
B-7---7---7--xx--x7-----7-7-x-7---5---5---5--xx--x5-----5-5-x-5--------------
G-7---7---7--xx--x7-----7-7-x-7---6---6---6--xx--x6-----6-6-x-6--------------
D-7---7---7--xx--x7-----7-7-x-7---7---7---7--xx--x7-----7-7-x-7--------------
A-5---5---5--xx--x5-----5-5-x-5---7---7---7--xx--x7-----7-7-x-7--------------
E---------------------------------5---5---5--xx--x5-----5-5-x-5--------------

D A

1 + 2 + 3 + 4 + 1 + 2 + 3 + 4 +
e----------------------------------------------------------------------------
B-7---7---7--xx--x7-----7-7-x-7---5---5---5--xx--x5-----5-5-x-5--------------
G-7---7---7--xx--x7-----7-7-x-7---6---6---6--xx--x6-----6-6-x-6--------------
D-7---7---7--xx--x7-----7-7-x-7---7---7---7--xx--x7-----7-7-x-7--------------
A-5---5---5--xx--x5-----5-5-x-5---7---7---7--xx--x7-----7-7-x-7--------------
E---------------------------------5---5---5--xx--x5-----5-5-x-5--------------


Now comes in Lisa Singing...


D A

1 + 2 + 3 + 4 + 1 + 2 + 3 + 4 +
e----------------------------------------------------------------------------
B-7---7---7--xx--x7-----7-7-x-7---5---5---5--xx--x5-----5-5-x-5--------------
G-7---7---7--xx--x7-----7-7-x-7---6---6---6--xx--x6-----6-6-x-6--------------
D-7---7---7--xx--x7-----7-7-x-7---7---7---7--xx--x7-----7-7-x-7--------------
A-5---5---5--xx--x5-----5-5-x-5---7---7---7--xx--x7-----7-7-x-7--------------
E---------------------------------5---5---5--xx--x5-----5-5-x-5--------------

D A

1 + 2 + 3 + 4 + 1 + 2 + 3 + 4 +
e----------------------------------------------------------------------------
B-7---7---7--xx--x7-----7-7-x-7---5---5---5--xx--x5-----5-5-x-5--------------
G-7---7---7--xx--x7-----7-7-x-7---6---6---6--xx--x6-----6-6-x-6--------------
D-7---7---7--xx--x7-----7-7-x-7---7---7---7--xx--x7-----7-7-x-7--------------
A-5---5---5--xx--x5-----5-5-x-5---7---7---7--xx--x7-----7-7-x-7--------------
E---------------------------------5---5---5--xx--x5-----5-5-x-5--------------


D A

1 + 2 + 3 + 4 + 1 + 2 + 3 + 4 +
e----------------------------------------------------------------------------
B-7---7---7--xx--x7-----7-7-x-7---5---5---5--xx--x5-----5-5-x-5--------------
G-7---7---7--xx--x7-----7-7-x-7---6---6---6--xx--x6-----6-6-x-6--------------
D-7---7---7--xx--x7-----7-7-x-7---7---7---7--xx--x7-----7-7-x-7--------------
A-5---5---5--xx--x5-----5-5-x-5---7---7---7--xx--x7-----7-7-x-7--------------
E---------------------------------5---5---5--xx--x5-----5-5-x-5--------------

G A D

1 + 2 + 3 + 4 + 1 + 2 + 3 + 4 +
e----------------------------------------------------------------------------
B-3---3---3--xx--x3-----3-3-x-3---5---5---5-5-5---7--77-7-7------------------
G-4---4---4--xx--x4-----4-4-x-4---6---6---6-6-6---7--77-7-7------------------
D-5---5---5--xx--x5-----5-5-x-5---7---7---7-7-7---7--77-7-7------------------
A-5---5---5--xx--x5-----5-5-x-5---7---7---7-7-7---5--55-5-5------------------
E-3---3---3--xx--x3-----3-3-x-3---5---5---5-5-5------------------------------


The next verse comes in the same but with the addition of added electric
guitar scratches within the same chords I think.


D A

1 + 2 + 3 + 4 + 1 + 2 + 3 + 4 +
e----------------------------------------------------------------------------
B-7---7---7--xx--x7-----7-7-x-7---5---5---5--xx--x5-----5-5-x-5--------------
G-7---7---7--xx--x7-----7-7-x-7---6---6---6--xx--x6-----6-6-x-6--------------
D-7---7---7--xx--x7-----7-7-x-7---7---7---7--xx--x7-----7-7-x-7--------------
A-5---5---5--xx--x5-----5-5-x-5---7---7---7--xx--x7-----7-7-x-7--------------
E---------------------------------5---5---5--xx--x5-----5-5-x-5--------------

D A

1 + 2 + 3 + 4 + 1 + 2 + 3 + 4 +
e----------------------------------------------------------------------------
B-7---7---7--xx--x7-----7-7-x-7---5---5---5--xx--x5-----5-5-x-5--------------
G-7---7---7--xx--x7-----7-7-x-7---6---6---6--xx--x6-----6-6-x-6--------------
D-7---7---7--xx--x7-----7-7-x-7---7---7---7--xx--x7-----7-7-x-7--------------
A-5---5---5--xx--x5-----5-5-x-5---7---7---7--xx--x7-----7-7-x-7--------------
E---------------------------------5---5---5--xx--x5-----5-5-x-5--------------


D A

1 + 2 + 3 + 4 + 1 + 2 + 3 + 4 +
e----------------------------------------------------------------------------
B-7---7---7--xx--x7-----7-7-x-7---5---5---5--xx--x5-----5-5-x-5--------------
G-7---7---7--xx--x7-----7-7-x-7---6---6---6--xx--x6-----6-6-x-6--------------
D-7---7---7--xx--x7-----7-7-x-7---7---7---7--xx--x7-----7-7-x-7--------------
A-5---5---5--xx--x5-----5-5-x-5---7---7---7--xx--x7-----7-7-x-7--------------
E---------------------------------5---5---5--xx--x5-----5-5-x-5--------------


G A D

1 + 2 + 3 + 4 + 1 + 2 + 3 + 4 +
e----------------------------------------------------------------------------
B-3---3---3--xx--x3-----3-3-x-3---5---5---5-5-5---7-------B------------------
G-4---4---4--xx--x4-----4-4-x-4---6---6---6-6-6---7-------О------------------
D-5---5---5--xx--x5-----5-5-x-5---7---7---7-7-7---7-------О------------------
A-5---5---5--xx--x5-----5-5-x-5---7---7---7-7-7---5-------M------------------
E-3---3---3--xx--x3-----3-3-x-3---5---5---5-5-5------------------------------


Now turn on the major distortion on the electric guitar and keep on
strumming as well on the accoustic. I'm not sure what else is going
on here but the chords but the chords are all i can play so.. =)

F# A B G F# A B G

1 2 3 4 1 2 3 4 1 2 3 4 1 2 3 4
e-----------------------------------------------------------------------------
B-----------------------------------------------------------------------------
G-----------------------------------------------------------------------------
D-4---4---7---7---9---9---5---5---4---4---7---7---9---9---5---5---------------
A-4---4---7---7---9---9---5---5---4---4---7---7---9---9---5---5---------------
E-2---2---5---5---7---7---3---3---2---2---5---5---7---7---3---3---------------


The rest of the song repeats the same basic two patterns. The third time
it breaks into the power chords it loses the vocals and drops into some
type of like guitar solo thing. It's all a mess and i can't pick out
anything, but it sounds freakin kewl! And That's it. It's not that hard
and it's pretty much all strumming. This song rules to play.
I am: Adam Rogoyski
apoc@laker.net
apoc@mediaflow.com

Check out my WEB PAGE for Lots of Lisa Tabs, music, and kewl stuff at
http://laker.net/apoc/lisaloeb.html
And check out my Оnlinе Fanzine, Video Games Express at
http://laker.net/apoc

This Tab is my own work using my own ear. Thank you and have fun!
Другие песни: