Little Big TownBring It On Home (intro) Текст

0 Голосов
Opening Rythym
E------------------------------------------------------|r
B---------0h1p0---1/4---4-4-x-4-x---3--3-x--3-3-3------|e
G----0----0-------0-----0-0-x-0-x---0--0-x--0-0-0------|p
D----0----0h2p0---2/5---5-5-x-5-x---2--2-x--2-2-2------|e
A----2------------0-----0-0-x-0-x---3--3-x--3-3-3------|a
E----3-------------------------------------------------|t

You got someone...
E---3------------------------------|
B---3------------------------------|
G---0------------------------------|
D---2------------------------------|
A---3------------------------------|
E----------------------------------|

Someone that... ...right here.
E---3---------------------------------------------|
B---3---------------------------------------------|
G---0--0-------------------------------------0----|
D------2----------------------------------0--0----|
A------3-------------------------------0h2---2----|
E--------------------------------------------3----|
Другие песни: