Linkin ParkFaint (btab) Текст

0 Голосов
No bass in intro

Verse 1:
G------------------------------------------------------------------------------------------
D------------------------------------------------------------------------------------------
A----4-4-4-4-4-4-4-4-----------------------------------------------------------------------
E---------------------0-0-0-0-0-0-0-0--5-5-5-5-5-5-5-5--2-2-2--4-4-4--0-0------------------

G------------------------------------------------------------------------------------------
D------------------------------------------------------------------------------------------
A----4-4-4-4-4-4-4-4-----------------------------------------------------------------------
E---------------------0-0-0-0-0-0-0-0--5-5-5-5-5-5-5-5--2-2-2--4-4-4--0-0------------------

Mike sings (pause)

Verse 2:
G------------------------------------------------------------------------------------------
D------------------------------------------------------------------------------------------
A----4-4-4-4-4-4-4-4-----------------------------------------------------------------------
E---------------------0-0-0-0-0-0-0-0--5-5-5-5-5-5-5-5--2-2-2--4-4-4--0-0------------------

G------------------------------------------------------------------------------------------
D------------------------------------------------------------------------------------------
A----4-4-4-4-4-4-4-4-----------------------------------------------------------------------
E---------------------0-0-0-0-0-0-0-0--5-5-5-5-5-5-5-5--2-2-2--4-4-4--0-0-0-0-0-0-0-0-0----

Mike sings (pause)

Verse 3:
G------------------------------------------------------------------------------------------
D------------------------------------------------------------------------------------------
A----4-4-4-4-4-4-4-4-----------------------------------------------------------------------
E---------------------0-0-0-0-0-0-0-0--5-5-5-5-5-5-5-5--2-2-2--4-4-4--0-0------------------

G------------------------------------------------------------------------------------------
D------------------------------------------------------------------------------------------
A----4-4-4-4-4-4-4-4-----------------------------------------------------------------------
E---------------------0-0-0-0-0-0-0-0--5-5-5-5-5-5-5-5--2-2-2--4-4-4--0-0-0-0-0-0-0-0-0----

G------------------------------------------------------------------------------------------
D-----6----------------6--------------6----------------6-----------------------------------
A---4---7-6-7-6----4-4---7-6-7-6----4---7-6-7-6----4-4---7-6-7-6---------------------------
E------------------------------------------------------------------------------------------

G------------------------------------------------------------------------------------------
D-----6----------------6--------------6----------------6-----------------------------------
A---4---7-6-7-6----4-4---7-6-7-6----4---7-6-7-6----4-4---7-6-7-6---------------------------
E------------------------------------------------------------------------------------------

Chester sings briefly (pause)

Verse 4:
G------------------------------------------------------------------------------------------
D------------------------------------------------------------------------------------------
A----4-4-4-4-4-4-4-4-----------------------------------------------------------------------
E---------------------0-0-0-0-0-0-0-0--5-5-5-5-5-5-5-5--2-2-2--4-4-4--0-0------------------

G------------------------------------------------------------------------------------------
D------------------------------------------------------------------------------------------
A----4-4-4-4-4-4-4-4-----------------------------------------------------------------------
E---------------------0-0-0-0-0-0-0-0--5-5-5-5-5-5-5-5--2-2-2--4-4-4--0-0------------------

G------------------------------------------------------------------------------------------
D------------------------------------------------------------------------------------------
A----4-4-4-4-4-4-4-4-----------------------------------------------------------------------
E---------------------0-0-0-0-0-0-0-0--5-5-5-5-5-5-5-5--2-2-2--4-4-4--0-0------------------

G------------------------------------------------------------------------------------------
D------------------------------------------------------------------------------------------
A----4-4-4-4-4-4-4-4-----------------------------------------------------------------------
E---------------------0-0-0-0-0-0-0-0--5-5-5-5-5-5-5-5--2-2-2--4-4-4--0-0-0-0-0-0-0-0-0----
Другие песни: