Limp BizkitLonely World Текст

0 Голосов
-------------------------------------------------------------------------------

Lonely World - Limp Bizkit
-------------------------------------------------------------------------------
Tabbed by: Mattius22


Tuning: Drop B (B F# B E G# c#)

This song sounds best if you have heavy delay throughout the whole song especially the begining.

Intro - clean. let all notes ring.

C#|------------------------------------------------------------|
G#|------------------------------------------------------------|
E |------------------------------------------------------------|
B |-----2------2------2-----2--/---5------5----7-7-7-7--5-5-5--|
F#|------------------------------------------------------------|
B |--2-----22------2----22-----/5-----55-----------------------|

C#|-----------------------------------------------------------------|
G#|-----------------------------------------------------------------|
E |-----------------------------------------------------------------|
B |-----0------0------0------0--/---7------7----10-10-10-10--9-9-9--|
F#|-----------------------------------------------------------------|
B |--0-----00------0-----00-----/7-----77---------------------------|


Verse - repeat all until verse ends. listen to track.

C#|---------------------------------------------------------------|
G#|---------------------------------------------------------------|
E |-14-16-17-16--14-16-17-16--14-16-17-16--14-16-17-16----repeat--|
B |---------------------------------------------------------------|
F#|---------------------------------------------------------------|
B |---------------------------------------------------------------|


Chorus - this is quite hard to tab properely due to the loud vocals and the delay and
that make it harder to hear but this sounds close.

C#|----------------------------------------------------------|
G#|----------------------------------------------------------|
E |----------------------------------------------------------|
B |--9-7-9-7-9------9-7-9-7-9------7-5-7-5-7------7-5-7-5-7--|
F#|--7-7-7-7-7------7-7-7-7-7------5-5-5-5-5------5-5-5-5-5--|
B |--7-7-7-7-7------7-7-7-7-7------5-5-5-5-5------5-5-5-5-5--|

there you go, enjoy

| / slide up
| slide down


===============================================================================
Другие песни: