Limp BizkitIt'll Be OK Текст

0 Голосов
c#--------------------------------------------------------------
g#---------------------------------------0-0-0-3-3-3p2-2--------
e---------0--------------0--------------------------------------
b-----4-------4-------4-----4-----------------------------------
f#--------------------------------------------------------------
c#-0----------------0----------0-----3--------------------------

2x
(Clean + light Delay)
c#--------------------------------------------------------------
g#----5-8-5-5--5-8-5-5--8--11-11-8-11-11------------------------
e---------------------------------------------------------------
b---------------------------------------------------------------
f#--------------------------------------------------------------
c#--------------------------------------------------------------

4x
(Clean + light Delay)
c#--------------------------------------------------------------
g#---------------------------------------0-0-0-3-3-3p2-2--------
e---------0--------------0--------------------------------------
b-----4-------4-------4-----4-----------------------------------
f#--------------------------------------------------------------
c#-0----------------0----------0-----3--------------------------

1x
(Clean + light Delay)
c#--------------------------------------------------------------
g#----5-8-5-5--5-8-5-5--8--11-11-8-11-11------------------------
e---------------------------------------------------------------
b---------------------------------------------------------------
f#--------------------------------------------------------------
c#--------------------------------------------------------------

now little variation
1x
(Clean + light Delay)
c#-------------------------------------8------------------------
g#----5-8-5-5--5-8-5-5--8--11-11--8-11---11---------------------
e---------------------------------------------------------------
b---------------------------------------------------------------
f#--------------------------------------------------------------
c#--------------------------------------------------------------

2x
(Clean + light Delay)
c#--------------------------------------------------------------
g#----5-8-5-5--5-8-5-5--8--11-11-8-11-11------------------------
e---------------------------------------------------------------
b---------------------------------------------------------------
f#--------------------------------------------------------------
c#--------------------------------------------------------------

4x
light distortion
c#--------------------------------------------------------------
g#--------------------------------------------------------------
e---------------------------------------------------------------
b---2--2--0h2p0---2--3--2---------------------------------------
f#--2--2--------0-2--1--2---------------------------------------
c#--0--0----------0--1--0---------------------------------------

7x
heavy distorted!!!
c#--------------------------------------------------------------
g#--------------------------------------------------------------
e---------------------------------------------------------------
b---2--2--0h2p0---2--3--2---------------------------------------
f#--2--2--------0-2--1--2---------------------------------------
c#--0--0----------0--1--0---------------------------------------
then 1x
c#--------------------------------------------------------------
g#--------------------------------------------------------------
e---------------------------------------------------------------
b---2--2--0h2p0---2--3------------------------------------------
f#--2--2--------0-2--1------------------------------------------
c#--0--0----------0--1-----------------------------------------

repeat 4 times
(Clean + light Delay)
c#--------------------------------------------------------------
g#---------------------------------------0-0-0-3-3-3p2-2--------
e---------0--------------0--------------------------------------
b-----4-------4-------4-----4-----------------------------------
f#--------------------------------------------------------------
c#-0----------------0----------0-----3--------------------------

1x
(Clean + light Delay)
c#--------------------------------------------------------------
g#----5-8-5-5--5-8-5-5--8--11-11-8-11-11------------------------
e---------------------------------------------------------------
b---------------------------------------------------------------
f#--------------------------------------------------------------
c#--------------------------------------------------------------

now little variation
1x
(Clean + light Delay)
c#-------------------------------------8------------------------
g#----5-8-5-5--5-8-5-5--8--11-11--8-11---11---------------------
e---------------------------------------------------------------
b---------------------------------------------------------------
f#--------------------------------------------------------------
c#--------------------------------------------------------------

2x
(Clean + light Delay)
c#--------------------------------------------------------------
g#----5-8-5-5--5-8-5-5--8--11-11-8-11-11------------------------
e---------------------------------------------------------------
b---------------------------------------------------------------
f#--------------------------------------------------------------
c#--------------------------------------------------------------

4x
light distortion
c#--------------------------------------------------------------
g#--------------------------------------------------------------
e---------------------------------------------------------------
b---2--2--0h2p0---2--3--2---------------------------------------
f#--2--2--------0-2--1--2---------------------------------------
c#--0--0----------0--1--0---------------------------------------

7x
heavy distorted!!!
c#--------------------------------------------------------------
g#--------------------------------------------------------------
e---------------------------------------------------------------
b---2--2--0h2p0---2--3--2---------------------------------------
f#--2--2--------0-2--1--2---------------------------------------
c#--0--0----------0--1--0---------------------------------------
then 1x
c#--------------------------------------------------------------
g#--------------------------------------------------------------
e---------------------------------------------------------------
b---2--2--0h2p0---2--3-3-3-3------------------------------------
f#--2--2--------0-2--1-1-1-1------------------------------------
c#--0--0----------0--1-1-1-1------------------------------------

SOLO PART:
8x
(Clean + Delay)
c#------------------------------------22p19---------------------
g#------------------------19p-21p-22p---------------------------
e------------------19p-21p--------------------------------------
b----18h19p18---21p---------------------------------------------
f#--------------------------------------------------------------
c#--------------------------------------------------------------

Heavy Distortion - get the fuck up!!!

4x
c#----------------------------------------------------------------
g#----------------------------------------------------------------
e----9--9---------------------------------------------------------
b----9--9----9-12p11-11-11----------------------------------------
f#---7--7---------------------------------------------------------
c#---0--0---------------------------------------------------------
pm
(this is an untabable rhythm - get the feeling for it
by palm muting the Chords!!!)

4x
light distortion
c#--------------------------------------------------------------
g#--------------------------------------------------------------
e---------------------------------------------------------------
b---2--2--0h2p0---2--3--2---------------------------------------
f#--2--2--------0-2--1--2---------------------------------------
c#--0--0----------0--1--0---------------------------------------

7x
heavy distorted!!!
c#--------------------------------------------------------------
g#--------------------------------------------------------------
e---------------------------------------------------------------
b---2--2--0h2p0---2--3--2---------------------------------------
f#--2--2--------0-2--1--2---------------------------------------
c#--0--0----------0--1--0---------------------------------------
then 1x
c#--------------------------------------------------------------
g#--------------------------------------------------------------
e---------------------------------------------------------------
b---2--2--0h2p0---2--3-3-3-3------------------------------------
f#--2--2--------0-2--1-1-1-1------------------------------------
c#--0--0----------0--1-1-1-1------------------------------------

repeat as often as you like and fade out....
(Clean + light Delay)
c#--------------------------------------------------------------
g#---------------------------------------0-0-0-3-3-3p2-2--------
e---------0--------------0--------------------------------------
b-----4-------4-------4-----4-----------------------------------
f#--------------------------------------------------------------
c#-0----------------0----------0-----3--------------------------
Другие песни: