Limp BizkitDont Go Off Wandering Текст

0 Голосов
Cd: Significant Other 

Transcribed By : Jeff Melo(JeffYBoyY0)
(* = Notes from Transcriber)

" All my tabs are best used when you have the album,
or the song recorded."
-----------------------------------


Try, to tune to the album, and then use a guitar
tuner. It should say you runed to a C#,
if not just drop D tune.
( If not tuned properly, it might come out hacked.
It´s tuned drop D tuning from
standard tuning. If you can you might wanna tune to
the album.)

*-" scary Fx intro this "


-(0:13)-
*-Intro Riff.
""
e-------||
b-------||
g-------||
d||---666-------666-------------||
a||---444-------444-------------||
c||-------00000-----00000-------||


*-Play play this piece as is into the verse riff.


-(0:21)-
*-verse Riff.
"Everyday is nothing but stress to me.."
*- Play lightly flangered in the back ground.
e------------------||
b------------------||
g|---6---66--4-4-4-6-67-7------||
d||----6---6-6h7---7-----------------------||
a||--4---4---------------------------------||
c------------------||

Play this riff thru to the chorus as needed.


-(0:52)-
*-Chorus Riff
"Because you, dont feel nothing at all."
e------------------||
b------------------||
g------------------||
d||----666666--222222-666666--222222-------||
a||----444444--000000-444444--000000-------||
c------------------||

*- Play this as is into the verse again..

-----------------------------------
-(1:07)-
*-Verse Riff

"There´s much more to life then it seems."

*-Play this again into this new bridge piece..
---------------------------

-(1:23)-
*-Bridge Riff
"Would you think any less of me now, that im gone.,,"
e|-----4------------------||
b||-------6---------------------------||
g-------------||
d|-2----------------------||
a||----4------------------------------||
c-------------||

*-Play this as needed until..

-----------------------------

-(1:39)-
*-chorus riff
"You don´t feel nothing at all."

*-Goes into this thingy..

---------------------

-(2:04)-
*-Thingy Riff
"You, me , nothing now´"
e-----------||
b-----------||
g-----------||
d||------6--5-----------------------||
a||---4--------3--4-----------------||
c-----------||

*-Play this into the intro riff, then the chorus riff,
and end it with the intro riff..

Привет всем рэперам РФ, и не только...
Другие песни: