Limp BizkitCrack Addict Текст

0 Голосов
Tuning: Drop D Down 1 1/2 Steps (B,F#,B,E,G#,С#)

Intro
|-----------------------------------------------------------------------------|
|-----------------------------------------------------------------------------|
|-----------------------------------------------------------------------------|
|-5-3-0-5-3-0-0~--------------------------------------------------------------|
|-5-3-0-5-3-0-0~--------------------------------------------------------------|
|-5-3-0-5-3-0-0~--------------------------------------------------------------|
PM. . . . . .

Chorus "Right now, let's go, me and you, toe to toe"
|-----------------------------------------------------------------------------|
|-----------------------------------------------------------------------------|
|-----------------------------------------------------------------------------|
|-0-7-0h7p0-8-0-0h8p7---------------------------------------------------------|
|-0-7-0h7p0-8-0-0h8p7---------------------------------------------------------|
|-0-7-0h7p0-8-0-0h8p7---------------------------------------------------------|

Fill "1, 1, 2 for the time"
|-----------------------------------------------------------------------------|
|-----------------------------------------------------------------------------|
|-----------------------------------------------------------------------------|
|-5~---------5~---------5-3-5-3-----------------------------------------------|
|-5~---------5~---------5-3-5-3-----------------------------------------------|
|-5~---------5~---------5-3-5-3-----------------------------------------------|
PM . . . .

Verse Pt.1 "Now I'm gonna fill up my lungs with some butane"
|-----------------------------------------------------------------------------|
|-----------------------------------------------------------------------------|
|----------5b-----------------------------------------------------------------|
|-----------------------------------------------------------------------------|
|-----------------------------------------------------------------------------|
|-5---5-5---------------------------------------------------------------------|

Verse Pt.2 "Hey! Hey!"
|-----------------------------------------------------------------------------|
|-----------------------------------------------------------------------------|
|-----------------------------------------------------------------------------|
|-5-3-5-3---------------------------------------------------------------------|
|-5-3-5-3---------------------------------------------------------------------|
|-5-3-5-3---------------------------------------------------------------------|
PM. . . .

Verse Pt.3 "Break you off something like this"
|-----------------------------------------------------------------------------|
|-----------------------------------------------------------------------------|
|-----------------------------------------------------------------------------|
|-5-3-0-5-3-0-0~--------------------------------------------------------------|
|-5-3-0-5-3-0-0~--------------------------------------------------------------|
|-5-3-0-5-3-0-0~--------------------------------------------------------------|
PM. . . . . .

Guitar 1 - Bridge "I wanna tell you"
|-------------------------------12p11-----------------------------------------|
|-10--8h11-8h11p10--10--8h11-8------------------------------------------------|
|-----------------------------------------------------------------------------|
|-----------------------------------------------------------------------------|
|-----------------------------------------------------------------------------|
|-----------------------------------------------------------------------------|

|-----------------------------------------------------------------------------|
|-10--8h11-8h11p10--10--8h11-8--10p9------------------------------------------|
|-----------------------------------------------------------------------------|
|-----------------------------------------------------------------------------|
|-----------------------------------------------------------------------------|
|-----------------------------------------------------------------------------|

Guitar 2 - Bridge "Gonna try"
|-----------------------------------------------------------------------------|
|-----------------------------------------------------------------------------|
|-----------------------------------------------------------------------------|
|-----------------------------------------------------------------------------|
|-666666-0-666666-0-666666-0-666----------------------------------------------|
|-----------------------------------------------------------------------------|

Bridge "It's time to panic"
|-----------------------------------------------------------------------------|
|-----------------------------------------------------------------------------|
|-----------------------------------------------------------------------------|
|-1-1-1-1-0-1-1-1-1-0-1-1-1-1-------------------------------------------------|
|-1-1-1-1-0-1-1-1-1-0-1-1-1-1-------------------------------------------------|
|-1-1-1-1-0-1-1-1-1-0-1-1-1-1-------------------------------------------------|

Outro
|-----------------------------------------------------------------------------|
|-----------------------------------------------------------------------------|
|-----------------------------------------------------------------------------|
|-8-8-8-8-8-8-8-8-8-8-8-8-8---------------------------------------------------|
|-8-8-8-8-8-8-8-8-8-8-8-8-8---------------------------------------------------|
|-8-8-8-8-8-8-8-8-8-8-8-8-8---------------------------------------------------|
Другие песни: