LiL PEEPStar Shopping Текст

0 Голосов
TABS/Табулатура:

e|---------------------------------------------------|
B|---------------------------------------------------|
G|---------------------------------------------------|
D|----4----4----4----4----4----4----4----4----4----4-|
A|---------------------------2----2----2----2----2---|
E|--3----3----3----3----3----------------------------|

e|----------------------------------------------------|
B|----------------------------------------------------|
G|----------------------------------------------------|
D|----4----4----4----4----4----4----4-------4----4----|
A|--0----0----0----0----0----0----0----0--5----5----5-|
E|----------------------------------------------------|
Другие песни: