LifehouseEverything Текст, аккорды

0 Голосов
Song: 	Everything
Artist: Lifehouse
Tabbed: Don Fisher (dwfisher13@collegeclub.com)
Note: Get out your digital tunner..this puppy is
tunned down half a step!!!

Versus
E------------------------------
A---5--0--1-1-----5--0--1-1----
D------------------------------
G------------------------------
Note: Many variations to the above

Chorus
E-1----------------------------
A---0--1-1-----5--0--1-1-------
D------------------------------
G------------------------------

Interlude
E---------------------------------
A---5-5-5-5-5-5-5-5-5/1-1-1-1-1-0-
D---------------------------------
G---------------------------------

E-1-1-1-1-1-1-1-0-----------------
A-----------------3-3-3-3-3-3-3-3-
D---------------------------------
G---------------------------------
Repeat twice

Return to chorus riff
and end song with this!

Simple as tying a shoe!

Shouts out to Mel for introducing me to Lifehouse!
Другие песни: