LifehouseBreathing Текст, аккорды

0 Голосов
------------------------------------------------

Breathing - Lifehouse
------------------------------------------------
This is a great song, and easy to play. I am NOT claiming to be 100% correct but
this is how I play it and I think it sounds pretty good. Enjoy


By: Aziz Alkatib
azizaa@umich.edu


Chords:
Dm: xx0231
C: x32010
Bb: x1333x
A: x02220
F: 133211
E: 022100 or x7999x or x76454
Eb: x6888x or x65343
Gm: 355333

INTRO (listen to song for exact timing, it's kinda tricky):

Dm C Bb C
e|---1----0-1-3---3----1-0-----------------0----------|
B|---3------------3--------3---3-----------1----------|
G|---2------------0------------3-----------0----------|
D|---0------------2------------3-----------2----------|
A|---x------------3------------1-----------3----------|
E|---x------------------------------------------------|

Dm C Bb A
e|---1----0-1-3---3----1-0-----------------0----------|
B|---3------------3--------3---3-----------2----------|
G|---2------------0------------3-----------2----------|
D|---0------------2------------3-----------2----------|
A|---x------------3------------1-----------0----------|
E|---x------------------------------------------------|
Repeat

VERSE 1: (again, watch the timing)

Dm C Bb C
I'm findin my way back to sanity again
Dm C
Though I don't really know what I'm gonna do
Bb A
When I get there...
Dm C
Take a breath and hold on tight
Bb C
And spin around one more time
Dm C Bb (fill)
And gracefully fall back to the arms of grace


CHORUS:
F C Bb F C
'Cause I'm hanging on every word you say
Dm C
And even if you don't wanna speak tonight
Bb C
That's alright, alright with me
F C
'Cause I want nothing more
Bb F C
Than to sit outside Heaven's door
Dm C
And listen to you breathing
Bb C
It's where I wanna be, yeah


PLAY INTRO

VERSE 2 (play like verse 1)


BRIDGE:

E Eb
I don't want a thing from you
E Eb
I bet you're tired of me
E
Waiting for the scratch to fall off
Eb
Of your table to the ground...

Gm F Eb
La la laaa, la la la la la laaaaaa
Dm C Bb C
'Cause I just wanna be here now...


CHORUS
CHORUS
OUTRO (fade)
Другие песни: