Life Of AgonyWhispers Текст, аккорды

0 Голосов
whispers


BY LIFE OF AGONY
from album 'soul searching sun'

transcribed by Christian Reindel (creindel@gmx.de)
any questions or corrections- e-mail me

TUNE DOWN ONE WHOLE STEP: Dropped C tuning

Main riff
D:|--------------------------------------------------------------------|
A:|--------------------------------------------------------------------|
F:|--------------------------------------------------------------------|
C:|--------------------------------------------------------------------|
G:|--------------------------------------------------------------------|
C:|-4-4-4--2-4-4-4-4--2-2-2--1-2-2-2-2-0-0-0-0-0-0-0-0-0-0-0-0-0-0-0-0-|

Chorusriff
D:|-------------------------------------------------------|
A:|-------------------------------------------------------|
F:|-------------------------------------------------------|
C:|-------------------------------------------------------|
G:|-5-7-7-X-X-X-4-6-6-X-X-X-10-10-10-X-X-X-10-10-10-10--|
C:|-5-7-7-X-X-X-4-6-6-X-X-X-10-10-10-X-X-X-10-10-10-10--|

Bridge
D:|----------------------------------------------------------|
A:|----------------------------------------------------------|
F:|----------------------------------------------------------|
C:|----------------------------------------------------------|
G:|-0--2--3--5--7-8-(8)-------8--7--5--3--2^3-0-(0)----------|
C:|-0--2--3--5--7-8-(8)-------8--7--5--3--2^3-0-(0)----------|

Outro
D:|----------------------------------------------------------|
A:|----------------------------------------------------------|
F:|----------------------------------------------------------|
C:|----------------------------------------------------------|
G:|----------------------------------------------------------|
C:|-0--2--3--5--7-8-(8)-------8--7--5--3--2^3-0-(0)----------|

song structure:

mainriff
chorusriff - 4 times
mainriff
chorusriff - 4 times
bridge - 2 times
mainriff
chorusriff - 4 times
bridge - 2 times
outro - play until the end and fade out....

end.
Другие песни: