Less Than JakeGhosts Of You And Me Текст

0 Голосов
-------------------------------------------------------------------------------

Ghosts of You and Me - Less than Jake
-------------------------------------------------------------------------------

Tabbed by: Jesse Benedick
Email: cartguysam@aol.com

Tuning: Standard

e|-----------------------|-------------0-------------------------------------|
B|-----------------------|-------------0-------------------------------------|
G|-9----9---11---7-------|-9-----------6-------------------------------------|
D|-x----9---11---7---7---|-9---11--9---7-------------------------------------|
A|-7----7---9----5---7---|-7---11--9---7-------------------------------------|
E|-------------------5---|-----9---7---5-------------------------------------|
Opening Chords pm......... Let GBE strings ring
e|-------------------|----------|--------------------------------------------|
B|-------------------|----------|--------------------------------------------|
G|--5-6-------8-9-9--|-9---14---|---99-9-----9--1111-9--77-9-----------------|
D|--5-6--6-7--8-9-9--|-9---14---|---99-x--77-x--1111-x--77-x-----------------|
A|--3-4--6-7--6-7-7--|-7---12---|---77-7--77-7--9-9--7--55-7-----------------|
E|-------4-5---------|----------|---------55---------------------------------|
Repeat 3x Chorus
e|------------------------|---------------------------------------------------|
B|------------------------|---------------------------------------------------|
G|--9---------9-----------|---------------------------------------------------|
D|--9---------9-----------|---------------------------------------------------|
A|--7---------7-----------|---------------------------------------------------|
E|------------------------|---------------------------------------------------|
Breakdown Let it ring



| / slide up
| slide down
| h hammer-on
| p pull-off
| ~ vibrato
| + harmonic
| x Mute note

===============================================================================
Другие песни: