ЛегионДвое Текст

0 Голосов
Intro: 
Игрть два раза
E||---87----7-------7-----7-|-------7----8----5--5-|---------5--------5------|
B||--------------8-----8----|-------8----8---------|---5--------5-----5------|
G||-------------------------|-------9----9---------|------5--------5--5------|
D||-------------------------|-------9--------------|-------------------------|
A||-------------------------|----------------------|------7------------------|
E||------------------------------------------------------------------------5-|
*

FL FL FL FL
------------------------------------7----------------|------12---------------------||
---------8-----7--8-----8------7-------7-------------|----------12-----------------||
---------9-----8--9-----9------8----------8----------|---9----------12-------------||
---------10----9--10----10-----9-------------------9-|-----------------------------||
-----------------------------------------------------|------7----------------------||
--7--8-------------------------7--------------12-----|-----------------------------||
* *

Em Am
Луна и снег Немного странный вечер
C B7 Em
Какой-то необычный непростой
Em Am
О чем-то нам нашептывает ветер
C B7 Em
Февральский ветер пахнущий весной

Em Am
И мы идем Лед под ногами хрупок
C B7 Em
И чуток этот полуночный час...
Em Am
Как яблоко разламывает с хрустом
C B7 Em
Мороз луну наверное для нас

Припев:
G D C
Молчим молчим молчим о чем-то скованно
G D C
О том, что знаем оба ты и я
G D C
О том чего не выскажешь и словом
Am B7 Em
О чем весной прошепчут тополя

Em Am
А лунный свет - серебряная мягкость -
C B7 Em
Накладывает тени под глаза
Em Am
И гасит их безудержную яркость
C B7 Em
И помогает все недосказать

Em Am
А снег а снег а снег так мягко сыплет
C B7 Em
Так медленен и тих спокойный шаг
Em Am
И кроме нас с тобой никто не слышит
C B7 Em
Как Это слово бьется на губах

Припев:
G D C
Молчим молчим молчим о чем-то скованно
G D C
О том, что знаем оба ты и я
G D C
О том чего не выскажешь и словом
Am B7 Em
О чем весной прошепчут тополя
Другие песни: