Led ZeppelinThe Ocean (btab) Текст

0 Голосов
intro/chorus riff verse riff 
G|2-2-0----------0---2---2---2-|-----------------------|
D|-----2-------02--02-----0-2--|-----------------------|
A|------3(0)----------4--------|5555-53333-3------3555-|
E|-----------------------------|------------5-3-5------|

end
G|--------|--------|--4-------|--------|----------|------------|
D|--------|--------|----7-4---|--------|----4--4--|---4--5--6--|
A|5-2-----|--4-2---|5-------7-|--------|5-7-------|7-----------|
E|----5-2-|0-----4-|----------|0-2-3-4-|----------|------------|

G|---------|-------|----------|------------|---------|---------|
D|---------|-------|-----4----|-----4------|---------|---------|
A|5-2------|-------|--45--7---|---45-7--7--|5-5------|---------|
E|----5-2-2|0-2-3-4|5-------70|55------7--5|----7-5-2|0-2-2-3-4|

G|------4----|---------|--4-------|--6-4-----|--------|--------|
D|--4-7---7-4|---------|----7-4-4-|------6---|--------|--------|
A|5----------|7-5-4----|5---------|7-------7-|5-4-----|--------|
E|-----------|------7-5|----------|----------|----7-5-|0-2-3-4-|

G|-------------|--------------|----------|--------|------4-----|
D|------4------|------4-------|----------|--------|--4-7---7-4-|
A|---45--7-----|---45--7--7---|5-5-2-----|--------|5-----------|
E|5---------70-|55-------7--5-|------5-2-|0-2-3-4-|------------|

G|--------|-------------|--------------|------------|----------|
D|--------|----4------4-|2-------------|------------|----------|
A|7-5-4---|--5---5-7----|------2--7--6-|5--5-3--2---|----------|
E|------7-|5------------|---4----------|----------5-|0-2-3-4-5-|

G|----------------|----------------|
D|-------4--------|--------4-------|
A|---45---7-------|----45---7------|
E|5----------70---|55----------77--|
Другие песни: