Led ZeppelinCustard Pie (btab) Текст

0 Голосов
part 1. intro




h

G----------|

D|--------2---757---|

A|--3^4----4-------|----rest-----|

E-----------|





part 2. main riff



G---------------------|

D757-----2---757-|

A---------|-------3^4---4-------|

E|--5--5--5---------|-5--5-----------------|



part 3. post main riff I



G--------------|

D--------------|

A|--5-----------|----5-4-3--3-2-1-|

E--------------|



part 4. post main riff II



G---------|

D---|--5--------------|

A|--7-----------------|

E---1---3-|





Song structure: part: 1,1,2,2,3,2,2,2,2,4,2,2,2,2,3,2,2,2,2,4,...etc





ost main riff II

G---------|
D---|--5--------------|
A|--7-----------------|
E---1---3-|


Song structure: part: 1,1,2,2,3,2,2,2,2,4,2,2,2,2,3,2,2,2,2,4,...etc
Другие песни: