Лагерные песниПриколи меня к стенке Текст, аккорды

0 Голосов
Bm Em F# Bm
Приколи меня к стенке, словно бабочку с юга.
Em A D
Мне уже все равно - я брыкаться не буду.

E---2-3-5--7--------
B-------------------
G----------9--------

Em A D
Я зависну надолго - на целое лето.
Em F# Bm
Мне зависнуть хотя бы, эх, до рассвета.

Bm Em F# Bm
И не будет тоски, и не будет печали.
Em A D
Пуля в череп вошла - кто-то к Богу отчалил.

E---2-3-5--7--------
B-------------------
G----------9--------

Em A D
Завтра будет прикол, но, увы, для кого-то.
Em F# Bm
А мы - левый народ, то не наша забота.

Bm Em F# Bm
Я хотел бы уйти, чтоб вернуться обратно.
Em A D
Кто-то целит в меня - ему это приятно.

E---2-3-5--7--------
B-------------------
G----------9--------

Em A D
Та, что вновь предала - назовется изменой.
Em F# Bm
Ну, а та, что дала - пусть останется с телом.
Другие песни: