La LeyCielo Market Текст

0 Голосов
*---------------*

| p: pull of |
| h: hammer on |
| x: mute |
| ^: full |
*---------------*

*Intro:
A | Bm | D | A |
E|-----------------|---------------|----------------------|-------------|
B|-----------------|-----10-----10-|-------10-------10----|-------------|
G|-6---6-----6-----|-7------7------|----------11----------|-----6-------|
D|-------7-----7---|---9------9----|-12----------12-------|-7-----7---7-|
A|---7-----7-----7-|---------------|----12-------------12-|---7-----7---|
E|-----------------|---------------|----------------------|-------------|
| | | | |
E|-----------------|---------------|----------------------|-------------|
B|-----------------|---------------|----------------------|-------------|
G|-----------------|---------------|----------------------|-------------|
D|-----------------|---------------|----------------------|-------------|
A|-----------------|------0h2^-----|-------2-4h5-5--------|----5p4-0----|
E|----0-3h5-5^-----|---------------|----------------------|-------------|

A | Bm | D | A |
E|-----------------|---------------|----------------------|-------------|
B|-----------------|-----10-----10-|-------10-------10----|-------------|
G|----6-----6------|-7------7------|----------11----------|-----6-------|
D|-------7-----7---|---9------9----|-12----------12-------|-7-----7---7-|
A|---7-----7-----7-|---------------|----12-------------12-|---7-----7---|
E|-----------------|---------------|----------------------|-------------|
| | | | |
E|-----------------|---------------|----------------------|-------------|
B|-----------------|---------------|----------------------|-------------|
G|-----------------|---------------|----------------------|-------------|
D|-----------------|---------------|----------------------|-------------|
A|-----------------|------0h2^-----|---------2h4----------|--5h7p5-4-0--|
E|----0-3h5-5^-----|---------------|----------------------|-------------|

*Solo:
E|-12-12-x-12-14-12-11-11-11-x-x-11-11-x-11-x-11-x-11-12-11-12-12-x-x-12-12-|
B|-14-14-x-14-14-14-11-11-11-x-x-11-11-x-11-x-11-x-11-11-11-14-14-x-x-14-14-|
G|--------------------------------------------------------------------------|:x2
D|--------------------------------------------------------------------------|
A|--------------------------------------------------------------------------|
E|--------------------------------------------------------------------------|

| 0:51 |
E|-------------|
B|---2-5-2-----|
G|-2-------4-2-|
D|-------------|
A|-------------|
E|-------------|



A Bm D A (x 2)


A Dsus4 D A
Algunos Disfrazan Sus Crudas Ganas De Figurar
A Dsus4 D A
Corazones Ardientes, Estrellas Calientes Por Papel
A Dsus4 D
Por Mientras Se Come Tu Imagen
A
Аlgъn Sucio Magazine
A Dsus4 D A
Que Estampa En Tu Frente Un Precio De Moda

A D
Cielo Me Has Marcado
A D C
Como La Estrella Que Logra Ver Su Estela
A D
Cielo Me Has Mandado
A D
A Sonreir Al Morir

A Dsus4 D A
Despierten Lectores De Ese Trance Que Los Masturba
A Dsus4
Mientras Leen Fаrбndulа
D A
Santito llеgу
A Dsus4
Los Rumores De Mil Amores
D A
Son Sуlо Una Mentira Que Se Vende Bien
A Dsus4
Y Si Existe Algo Cierto,
D A
A Quiйn Le Importa...

A D
Cielo Me Has Marcado
A D C
Como La Estrella Que Logra Ver Su Estela
A D
Me Has Petrificado
A D
Como Una Estatua Como Una Linda Cara
A D
Cielo Me Has Ordenado
A D C
A Ser Verdugo De Mi Propia Cabeza
A D
Cielo Me Has Mandado
A D
A Sonreir Al Morir

A Bm D A (x 4)



A D
Cielo Me Has Marcado
A D C
Como La Estrella Que Logra Ver Su Estela
A D
Me Has Petrificado
A D C
Como Una Estatua Como Una Linda Cara
A D
Cielo Me Has Ordenado
A D C
A Ser Verdugo De Mi Propia Cabeza
A D
Cielo Me Has Mandado
A D
A Sonreir Al Morir

C D C A
Другие песни: