Кузьмин ВладимирFollow The Light Текст

0 Голосов
Follow The Light



Capo 2nd fret. (chords & tab relative to capo)

Intro

D G D G D G C

e ---2-----2-----3-----3-----5-----5-----7-----7-----5-----5-----3-----3-----0--|
B ---------------------------------------------------------------------------1--|
G ---------------------------------------------------------------------------0--| (x2)
D ------0-----0-----0-----0-----0-----0-----0-----0-----0-----0-----0-----0--2--|
A ---------------------------------------------------------------------------3--|
E ---------------------------------------------------------------------------0--|


verse

D Em C
Nobody really knows
D Em C
where they're supposed to go.
D Em C
Hiding behind a wall.
D Em C
Afraid that they'll lose it all,


chorus

D G
but it's alright,
D G
just follow the light,
D G C
and don't be afraid of the dark.

D G
In the moonlight
D G
you'll dance till you fall,
D G C
and always be here in my heart.


D Em C


verse

D Em C
But nobudy wants to know
D Em C
'cos nobody even cares.
D Em C
Everyone's on the make, yeah
D Em C
and everyone's out for themselves.

D Em C
Me I'am on the longest road.
D Em C
Where everything's overload.
D Em C
But I've got my heart and soul,
D Em C
so don't throw me overboard


chorus

D G
'cos it's alright,
D G
just follow the light,
D G C
and don't be afraid of the dark.

D G
In the moonlight
D G
you'll dance till you fall,
D G C
and always be here in my heart.


D Em C x3
D Em C(hold)

D G D G D G C

e ---2-----2-----3-----3-----5-----5-----7-----7-----5-----5-----3-----3-----0--|
B ---------------------------------------------------------------------------1--|
G ---------------------------------------------------------------------------0--| (x2)
D ------0-----0-----0-----0-----0-----0-----0-----0-----0-----0-----0-----0--2--|
A ---------------------------------------------------------------------------3--|
E ---------------------------------------------------------------------------0--|


chorus

D G
'Cos it's alright,
D G
just follow the light,
D G C
and don't be afraid of the dark.

D G
In the moonlight
D G
you'll dance till you fall,
D G C
and always be here in my heart.

D G
'Cos it's alright,
D G

D G C
alright now.

D G
And you're alright.
D G

D G C
Yeah we're alright now.

D G C
Другие песни: