Кузьма СкрябинЕду я на родину Текст

0 Голосов
Intro: Fm Bbm }x2

Fm Bbm
Пыльный город где-то позади,
Eb Ab C
От этой тишины звенит в ушах.
Fm Bbm
И радость разрывает изнутри,
Eb Ab
Остался где-то там нелепый страх.

Bbm Fm
Наконец - то еду я на родину!
Ab Eb
О, Боже, как ты стала хороша!
Bbm Fm
Жаль, что видят это лишь немногие,
Ab Eb
На родину я еду к корешам!

Fm Bbm
Всё те же ветви мне стучат в окно,
Eb Ab C
И мяч гоняет с криком детвора.
Fm Bbm
О, Боже, это было так давно,
Eb Ab
И в отчий дом мне спешить пора.

Bbm Fm
Наконец - то еду я на родину!
Ab Eb
О, Боже, как ты стала хороша!
Bbm Fm
Жаль, что видят это лишь немногие,
Ab Eb
На родину я еду к корешам!

Fm Bbm }x2

Соло (табы см.после текста песни)

Bbm Fm
Наконец - то еду я на родину!
Ab Eb
О, Боже, как ты стала хороша!
Bbm Fm
Жаль, что видят это лишь немногие,
Ab Eb
На родину я еду к корешам!

Bbm Fm
Наконец - то еду я на родину!
Ab Eb
О, Боже, как ты стала хороша!
Bbm Fm
Жаль, что видят это лишь немногие,
Ab Eb
На родину я еду к корешам!

Соло:
Fm
E|------------8-8-|------------8-8--8|
B|--9-11--9-11----|--9-11--9-11---9--|
G|10----10--------|10----10----------|
Bbm
E|------(13)--|-----------------7-8--|
B|11-11-------|-------------9-11---9-|
G|------------|---------8-10--------8|
Ab
E|---------------|-----------------8-|
B|9----11-9-11-9-|----------------9-9|
G|--------------8|-------------------|
C Fm
E|------(13)---|---------------------|
B|-------------|---------------------|
G|10-10--------|---------------------|
Fm
E|------------8-8-|------------8-8--8|
B|--9-11--9-11----|--9-11--9-11---9--|
G|10----10--------|10----10----------|
Bbm
E|------(13)--|-----------------7-8--|
B|11-11-------|-------------9-11---9-|
G|------------|---------8-10--------8|
Ab
E|--------------8|-------------------|
B|9----11-9-11-9-|-------------11-9--|
G|---------------|-----------------10|
C Fm
E|-------(13)--|--------------------||
B|-9-----------|--------------------||
G|8-10-10------|--------------------||
Другие песни: