КукрыниксыПо раскрашеной душе Текст

0 Голосов
Intro:
1|------------------------------------------|
2|------------------------------------------|
3|-7-7-7-6-7-7-7-6-7-6-7-7---------------6--| x4
4|-------------------------7-7-8-8-----8----|
5|---------------------------------9-9------|
6|------------------------------------------|

1 куплет:
Bm Em F#
1|--2-----2------2-----2------0----2--|
2|--3-------3----3-------3----0----2--|
3|--4---4--------4---4--------0----3--| x2
4|--4------------4------------2----4--|
5|--2------------2------------2----4--|
6|--2------------2------------0----2--|

Bm Em F#
Что мне за роль выдала боль с головой
Bm Em F#
Нет мне мечты стать у черты роковой
Bm Em F#
И никогда я не просил, я так жил
Bm Em F#
Болью своей, кровью своей я не дорожил

Припев:
Bm D Em F#
По раскрашенной душе моей
Bm D Em F#
На обратной стороне написал: поверь
Bm D Em F#
Время разгребало в дым следы
Bm D
Что осталось мне теперь –
Em F# Bm
Собирать свои дары

Bm Em F#
По временам выпало нам по рукам
Bm Em F#
Быть красотой, стать высотой дуракам
Bm Em F#
Так я терпел, жизнью кипел, истину не пел
Bm Em F#
Долго не ждал, сил не терял, что же нужно вам?

Припев:
Bm D Em F#
По раскрашенной душе моей
Bm D Em F#
На обратной стороне написал: поверь
Bm D Em F#
Время разгребало в дым следы
Bm D
Что осталось мне теперь –
Em F# Bm
Собирать свои дары

Solo:
1|------------------------------------------|
2|------------------------------------------|
3|-7-7-7-6-7-7-7-6-7-6-7-7---------------6--| x2
4|-------------------------7-7-8-8-----8----|
5|---------------------------------9-9------|
6|------------------------------------------|

1|--------------------------------------------------------------7--9-|
2|-------------------------------------------------------------------|
3|-7-7-7-6-7-7-7-6-9-9-7-9-9-7-9-11-11-11-9-11-11-11-9-11-11-11------|
4|-------------------------------------------------------------------|
5|-------------------------------------------------------------------|
6|-------------------------------------------------------------------|

1|-10-10-10-9-10-10-10-9-12-12-10-12-12-10-12-14-14-14-15-14-12-10-|
2|-----------------------------------------------------------------|
3|-----------------------------------------------------------------|
4|-----------------------------------------------------------------|
5|-----------------------------------------------------------------|
6|-----------------------------------------------------------------|

1|--------------------------------------------------------------7--9-|
2|-------------------------------------------------------------------|
3|-7-7-7-6-7-7-7-6-9-9-7-9-9-7-9-11-11-11-9-11-11-11-9-11-11-11------|
4|-------------------------------------------------------------------|
5|-------------------------------------------------------------------|
6|-------------------------------------------------------------------|

1|-10-10-10-9-9-10-7-7-7-6-6-7---------------------------|
2|-----------------------------7-7-7-6-6-7-5-5-5-4-4-5-3-|
3|-------------------------------------------------------|
4|-------------------------------------------------------|
5|-------------------------------------------------------|
6|-------------------------------------------------------|
Другие песни: