Krauss AlisonBaby Now That I Found U Текст, аккорды

0 Голосов
Date: Myerkules ika-21 ng Pebrero


Artist: Alison Krauss
Title : Baby now that I found you
Transcribbed by: Jomar Agojo
(Calamba Laguna)
Email : J.SHAQ@HOT-SHOT.COM
Phone #: 123456789 + 10 = jomar


D's s my 2nd tab, hope u can get it. Just listen 2 d song
If u hav any question dont ask me GAGO! Matuto kang mag-isip,
pinalaki ka ng magulang mo d para maging ta... tang ina!!!


Intro:
D7 C9 G ?
e|--------0-------0-------0-------0-------0-------0-------0-------0--|
B|------3-------3-------3-------3-------3-------3-------3-------3----|
G|----2-------2-------0-------0-------0-------0-------0-------0------|
D|--0-------0--------------------------------------------------------|
A|------------------3-------3-------2-------2-------1-------1--------|
E|-------------------------------------------------------------------|

Verse:
D7 C9 G ?
e|--------0-------0-------0-------0-------0-------0-------0-------0--|
B|------3-------3-------3-------3-------3-------3-------3-------3----|
G|----2-------2-------0-------0-------0-------0-------0-------0------|
D|--0-------0--------------------------------------------------------|
A|------------------3-------3-------2-------2-------1-------1--------|
E|-------------------------------------------------------------------|
Baby now...

D7 Em G A
e|--------0------------0-----0--------3-----3--------0-----0---------|
B|------3---3------------0--------------3------------2-2-------------|
G|----2-------2------------0--------------0--------2-----------------|
D|--0----------------2--------------0------------2-------2-----------|
A|-----------------2--------------2------------0---------------------|
E|---------------0--------------3------------------------------------|
I need... (then repeat)

D7 C
e|--------0------------------------|
B|------3-----------------1--------|
G|----2-------2---------0----------| (2 times) before the
D|--0-------0---------2------------| 2nd verse
A|--------------0-2-3--------------|
E|--------------------------3-5----|


Solo: acoustic guitar

e|--------5-5------7-8-10-8-7-----10------------8/10-8-6-65---------|
B|--3h5/7-----7--7------------9-7----7-7--76-7----------------8/10--|
G|-----------------------------------------------------------7-------|
D|-------------------------------------------------------------------|
A|-------------------------------------------------------------------|
E|-------------------------------------------------------------------|

e|--------------------------10-7-5-----------------------------------|
B|-----------10/12-----------8-8-5-----------------------------------|
G|--7-7--97-------9-9--97--------4h6-4-----------------------------|
D|---------------------------------------7---------------------------|
A|-------------------------------------------------------------------|
E|-------------------------------------------------------------------|

Solo: for the violin

e|-------------------------------------------------------------------|
B|-------------------------------------------------------------------|
G|-------------------------------------------------------------------|
D|------4-7-7----4-5-7-5-4----------------------5/7-5----------------|
A|--5h7--------5-----------7-5-5/7---5--54-4-5-------8--------------|
E|---------------------------------7---------------------------------|

e|-------------------------------------------------------------------|
B|-------------------------------------------------------------------|
G|-------------------------------------------------------------------|
D|---------------------7/9------------4-5-4-------7/9-7--------------|
A|--------5-5-5--5-7-5-----7-7-7----5-------5-----------7h9-7--------|
E|--5-5-5-------------------------7-----------7-5-------------10-----|

dats ol!!!
Другие песни: