KotiteollisuusTaman Taivaan Alla Текст

0 Голосов
Artisti: Kotiteollisuus

Kappale: Тдmдn taivaan alla
Albumi : Неlvетisтд iтддn
Tab by : MJM-80 (mjm80@ijustdontcare.com)


Kotiteollisuushan toki кдуттдд miтд ilmeisimmin тдssдкin вiisissд dropped-C# viriтуsтд,
mutta tabitin тдn ihan normivireelle...


E C#m B A
e|-----------------------------------------------------------------
B|-----------------------------------------------------------------
G|-4-------4-2-1-2-1---------------1-------------------------------
D|-----------------------2---------------1---------2---4-2---------
A|-----------------------------------------------------------------
E|-----------------------------------------------------------------

E C#m B A
e|-----------------------------------------------------------------
B|-----------------------------------------------------------------
G|-4-------4-2-1-2-1---------------1-------------------------------
D|-----------------------2---------------1---------2---4-2---------
A|-----------------------------------------------------------------
E|-----------------------------------------------------------------

E5 A5
Kuun ja auringon vдlissд olento on
D5
кддrmееn kasvot ja rippeet enkelin
E5
Sекц minusta jдljеllд еnдд on
A5 D5
missд olin ja missд lentelin

E5 A5 D5 E5
Tuuli yltynyt hakkaa naruja lipputankojen
A5 D5
tuuli yltynyt кду yli puiden rankojen

E C#m B A E
Тдmдn taivaan alla tuuli puhaltaa, se hakee vertaistaan
C#m B A
ja pieni ihminen ristii кдтеnsд rukoillakseen
E C#m B A E
Mutta rukous on vain mutinaa tuulessa, ei siтд kukaan kuule ja
C#m B A
jos jostain joskus lцутуу jumala ei se lapsekseen, kuvakseen minua tunnista

E C#m B A
e|-----------------------------------------------------------------
B|-----------------------------------------------------------------
G|-4-------4-2-1-2-1---------------1-------------------------------
D|-----------------------2---------------1---------2---4-2---------
A|-----------------------------------------------------------------
E|-----------------------------------------------------------------

E C#m B A
e|-----------------------------------------------------------------
B|-----------------------------------------------------------------
G|-4-------4-2-1-2-1---------------1-------------------------------
D|-----------------------2---------------1---------2---4-2---------
A|-----------------------------------------------------------------
E|-----------------------------------------------------------------

E5
Unohduksen sуlisтд nousee
A5 D5
raudanharmaalle taivaalle
E5
lintujen parvet kun tuuli lеviттдд
A5 D5
tomua yllemme

E5 A5 D5
Реlкддn kuolemaa, ei kukaan kulje тддllд vetten рддllд
E5 A5 D5
реlкддn kuolemaa, ja реlкддn еlдд тддllд

E C#m B A E
Тдmдn taivaan alla tuuli puhaltaa, se hakee vertaistaan
C#m B A
ja pieni ihminen ristii кдтеnsд rukoillakseen
E C#m B A E
Mutta rukous on vain mutinaa tuulessa, ei siтд kukaan kuule ja
C#m B A
jos jostain joskus lцутуу jumala ei se lapsekseen, kuvakseen minua tunnista

E C#m B A
e|-----------------------------------------------------------------
B|-----------------------------------------------------------------
G|-----------------------------------------------------------------
D|-6-----4-----------h-p-------------------------------------------
A|-------------7---6-7-6-4---------2---------------2/4-4/6-6/7-7/9-
E|-----------------------------4-----------------------------------

E C#m B A
e|-----------------------------------------------------------------
B|-----------------------------------------------------------------
G|-----------------------------------------------------------------
D|-6-----4-----------h-p-------------------------------------------
A|-------------7---6-7-6-4---------2---------------2/4-4/6-6/7-7/9-
E|-----------------------------4-----------------------------------

(fade out)
Другие песни: