KotiteollisuusSatu Peikosta Текст, аккорды

0 Голосов
KOTITEOLLISUUS: SATU PEIKOISTA


Vire: C#-G#-C#-F#-A#-D#

Tabbed by plikk

x = dempattuna

Alkuriffi
|-------------------------------------------------------------------------|
|-------------------------------------------------------------------------|
|-------------------------------------------------------------------------|
|--0-7-12-13-12~~~7-8--8-8-8-8-10-10-10--0-7-12-13-12~~~7-8--8-8-8-3-2-1--|
|--0-7-12-13-12~~~7-8--8-8-8-8-10-10-10--0-7-12-13-12~~~7-8--8-8-8-3-2-1--|
|--0-7-12-13-12~~~7-8--8-8-8-8-10-10-10--0-7-12-13-12~~~7-8--8-8-8-3-2-1--|


...Toisiinsa kietoutuneina...
|-------------------------------------|---------------------------------|
|-------------------------------------|---------------------------------|
|-------------------------------------|---------------------------------|
|--0-0-0-0-0-0-0-8--8-8-8-8-10-10-10--|--5-5-5-5-5-5-5-5-5-5-5-5-3-2-1--|
|--0-0-0-0-0-0-0-8--8-8-8-8-10-10-10--|--5-5-5-5-5-5-5-5-5-5-5-5-3-2-1--|
|--0-0-0-0-0-0-0-8--8-8-8-8-10-10-10--|--5-5-5-5-5-5-5-5-5-5-5-5-3-2-1--|
x x x x x x x x x x x x x x x x x x x x x x x x x x


...Мiтд puiden takana...
|-------------------------------------------------------------------|
|-------------------------------------------------------------------|
|------------------5-5-5-5-5-5-5-5----------------------------------|
|--3-3-3-3-3-3-3-3-5-5-5-5-5-5-5-5-5-5-5-5-5-5-5-5-8-8-8-8-8-8-8-8--|
|--3-3-3-3-3-3-3-3-3-3-3-3-3-3-3-3-5-5-5-5-5-5-5-5-8-8-8-8-8-8-8-8--|
|--3-3-3-3-3-3-3-3-----------------5-5-5-5-5-5-5-5-8-8-8-8-8-8-8-8--|
x x x x x x x x x x x x x x x x x x x x x x x x x x x x x x x x


...Lyijynraskaita...
|---------------------------------------------------------------------------|
|---------------------------------------------------------------------------|
|---------------------------------------------------------------------------|
|--0-0-0-0-0-0-0-0-7-7-7-7-7-7-7-8-10-10-10-10-10-10-10-10-5-5-5-5-5-3-2-2--|
|--0-0-0-0-0-0-0-0-7-7-7-7-7-7-7-8-10-10-10-10-10-10-10-10-5-5-5-5-5-3-2-2--|
|--0-0-0-0-0-0-0-0-7-7-7-7-7-7-7-8-10-10-10-10-10-10-10-10-5-5-5-5-5-3-2-2--|



|------------------------------------------------------|
|------------------------------------------------------|
|------------------------------------------------------|
|--3-3-3-2-0-------------5--5-5-5-3-2-0---0-0-2-0---0--|
|------------3--0---0-3---------------------------3----|
|------------------------------------------------------|
Другие песни: