KotiteollisuusRakkaus Ja Min 6-0 Текст, аккорды

0 Голосов
KOTITEOLLISUUS: RAKKAUS JA МINД 6-0


Vire: C#-G#-C#-F#-A#-D#

Tabbed by plikk


Alkuriffi 1-3. 4.
|---------------------------|--------|--|
|---------------------------|--------|--|
|---------------------------|--------|--|
|--3-3-3-0--0---0-0---0-0---|-0---0--|--|
|--3-3-3-0--0---0-0---0-0---|-0---0--|--|
|--3-3-3-0--0-5-0-0-5-0-0-5-|-0-5-0--|--|

1-2. 3.
|--------|--------------------------|---------------------------------|
|--------|--------------------------|---------------------------------|
|--------|--------------------------|---------------------------------|
|--3-3-3-|-0--0---0-0---0-0---0---0-|-5--5-5-5-5-5-5-5-3-3-3-3-5-5-5--|
|--3-3-3-|-0--0---0-0---0-0---0---0-|-5--5-5-5-5-5-5-5-3-3-3-3-5-5-5--|
|--3-3-3-|-0--0-5-0-0-5-0-0-5-0-5-0-|-5--5-5-5-5-5-5-5-3-3-3-3-5-5-5--|

1-3. 4.
|--------|--------------------------|---------------------------------|
|--------|--------------------------|---------------------------------|
|--------|--------------------------|---------------------------------|
|--3-3-3-|-0--0---0-0---0-0---0---0-|-5--5-5-5-5-5-5-5-3-3-3-3-5-5-5--|
|--3-3-3-|-0--0---0-0---0-0---0---0-|-5--5-5-5-5-5-5-5-3-3-3-3-5-5-5--|
|--3-3-3-|-0--0-5-0-0-5-0-0-5-0-5-0-|-5--5-5-5-5-5-5-5-3-3-3-3-5-5-5--|

|-------------------------------------|
|-------------------------------------|
|-------------------------------------|
|--0--0---0-0---0-0---0---0-3-3-3-0---|
|--0--0---0-0---0-0---0---0-3-3-3-0---|
|--0--0-5-0-0-5-0-0-5-0-5-0-3-3-3-0---|



...Maailma...
|----------------------------------------------------|
|----------------------------------------------------|
|----------------------------------------------------|
|--0-0---0--0--0--0--0--0--0--0--0--0--0--0--0--3-2--|
|--0-0---0--0--0--0--0--0--0--0--0--0--0--0--0--3-2--|
|--0-0---0--0--0--0--0--0--0--0--0--0--0--0--0--3-2--|



Kertsi
|------------------------------------------------------------------------------------
|------------------------------------------------------------------------------------
|------------------------------------------------------------------------------------
|-3333333333333333-6666666666666666-11-11-11-11-11-11-11-11-11-11-11-11-11-11-11-11--
|-3333333333333333-6666666666666666-11-11-11-11-11-11-11-11-11-11-11-11-11-11-11-11--
|-3333333333333333-6666666666666666-11-11-11-11-11-11-11-11-11-11-11-11-11-11-11-11--

-------------------------------|
-------------------------------|
-------------------------------|
--0-2-3-4--0-5-6--0-7-8--0-10--|
--0-2-3-4--0-5-6--0-7-8--0-10--|
--0-2-3-4--0-5-6--0-7-8--0-10--|


--------------------------------------------------------------------------------------
Другие песни: