Король и ШутВодяной Текст

0 Голосов
Вступление: x4 
A G
E|-----------------------------|
B|-----------------------------|
G|-----------------------------|
D|-----------------------------|
A|----4-5--4--------4-5--4-5-7-|
E|-5---------5-4-3-------------|

В куплете под аккорды играется(9/11-слайд, т.е. быстрое скольжение с 9 лада на 11)
A G Bm D C5 B5
E|-------------------------------------------------------------------------|
B|-------------------------------------------------------------------------|
G|----9-9/11-9---------9-9/11-9---------7-7/9-7--------7-7/9-7-------------|
D|-7-----------11-9-7-----------11-9-5----------9-7-5----------9-7-9-----9-|
A|-------------------------------------------------------------------------|
E|-------------------------------------------------------------------------|

A
В лесном пруду вода играла
G
В солнечных лучах
Bm
С охоты шел Капитон
D (C5 B5) быстро
Бобра нес на плечах
A
Знойной порой дорогой лесной
G
Домой он брел устало
Bm
У пруда как всегда
D
Он встал-рожу мыть стал

Припев:
A G
Освежает иногда
A G
В зной холодная вода
A G
Чтобы не стряслась беда
A G
Эй, мужик не лезь туда!

A
Но сильно искажала
G
Отражение вода
Bm
Какой урод вот это да!
D (C5 B5) быстро
В пиявках вся борода
A
Вот ерунда четыре ведра
G
Как будто браги выпил
Bm
Постарел, подурнел,
D
Оброс - паршивый как пес

Припев:
A G
Освежает иногда
A G
В зной холодная вода
A G
Чтобы не стряслась беда
A G
Эй, мужик не лезь туда!

F#
Уау-уау-уау-уау...

B E F# B }x2

B E F# B
Вскоре очень злой вылез водяной
B E F# B
"Ты что лопух совсем мужик опух"
B E F# B
Я в своем пруду таких не потерплю
B E F# B
Еще увижу-сразу утоплю
E A D G
Я прошу владыка пруда
C B
Извинить меня
E A D G C B
Просто видя вас думал это я

Концовка:
A G
E-----------------
B-----------------
G-----------------
D-----------------
A----4-5--4-------
E-5---------5-4-3-
Другие песни: