Король и ШутПредставляю я Текст

0 Голосов
Вступление: Am 

бас:
G |---------------------
D |---------------------
A |--------------------- - несколько раз
E |-5-5-0-3-5-5-0-3-5-5-

гитара:
Am
E |------------------------------------------------
B |--3^5-3^5-3^5---------1---3^5-3^5-3^5---------1-
G |--------------2-2-0^2-2---------------2-2-0^2-2-
D |--------------2-2-2-2-----------------2-2-2-2---
A |------------------------------------------------
E |------------------------------------------------

Am
Представляю я
Am G F G
Вот на стуле я сижу,
Am G F G
Во все стороны гляжу.
Представляю я себя
В виде грозного царя!

Представляю я!

Но больная голова,
Мне все портить начала.
И теперь представил я,
Будто свергнули меня!

Am
Но больная голова,
Am
Мне все портить начала.
И теперь представил я,
Будто свергнули меня!

Убегаю я, но вот -
Окружил меня народ.
Выстрел. Крик. В крови земля.
И у дуба дохлый я!

Убегаю я, но вот -
Окружил меня народ.
Выстрел. Крик. В крови земля.
И у дуба дохлый я!

Представляю я!
Другие песни: