Король и ШутПивной череп Текст

0 Голосов
Intro:
Bm G A (Asus4 A Asus4 A Asus2 A)
E)-2--2----3-3-----0--0-0-0-0-0-0-0--|
B)-3--3----3-3-----2--2-3-2-3-2-0-2--|
G)-4--4----4-4-----2--2-2-2-2-2-2-2--|
D)-4--4----5-5-----2--2-2-2-2-2-2-2--| x4
A)-2--2----5-5-----0--0-0-0-0-0-0-0--|
E)-2--2----3-3-----------------------|

With distorshn:
B5 G5 A5
E)-----------------------------------|
B)-----------------------------------|
G)-4-4-4-4---------------------------|
D)-4-4-4-4-5-5-5-5-7-7-7-7-7-7-7-7---| x4
A)-2-2-2-2-5-5-5-5-7-7-7-7-7-7-7-7---|
E)---------3-3-3-3-5-5-5-5-5-5-5-5---|

Bass: (bass->guitar tabs)
E)-----------------------------------|
B)-----------------------------------|
G)-----------------------------------| x6
D)-----------------------------------|
A)-2-2-4-5-----4-5----4-5-/7-5-4-5---|
E)---------3-3-----------------------|

Verse 1:
Bm (A)
E)-2----2--2-------------------------|
B)-3----3--3-----2-2-2-3-2-0-2-------|
G)-4----4--4-------------------------|
D)-4----4--4-------------------------|
A)-2----2--2-------------------------|
E)-2----2--2-------------------------|

Bm (A)
E)-2----2--2-------------------------|
B)-3----3--3-----2-2-2-3-2-3-5-------|
G)-4----4--4-------------------------|
D)-4----4--4-------------------------|
A)-2----2--2-------------------------|
E)-2----2--2-------------------------|

Bm (A) (G) (A)
E)-2----2--2-------------------------|-------|
B)-3----3--3-----2-2-2-3-2-0-2-------|-------|
G)-4----4--4-------------------------|-------|
D)-4----4--4-------------------------|-------|
A)-2----2--2-------------------------|-------|
E)-2----2--2-------------------------|-------|

Witn distorsion:
B5 P.M-------------
E)-----------------------------------|
B)-----------------------------------|
G)-----------------------------------|
D)-4----4--4-------------------------|
A)-4----4--4-----4-4-4-5-4-2-0-------|
E)-2----2--2-------------------------|

B5 P.M-------------
E)-----------------------------------|
B)-----------------------------------|
G)-----------------------------------|
D)-4----4--4-------------------------|
A)-4----4--4-----4-4-4-5-4-5-7-------|
E)-2----2--2-------------------------|

B5 P.M------------- (G) (A)
E)-----------------------------------|-------|
B)-----------------------------------|-------|
G)-----------------------------------|-------|
D)-4----4--4-------------------------|-------|
A)-4----4--4-----4-4-4-5-4-2-0-------|-------|
E)-2----2--2-------------------------|-------|

Bm G A
Шелестит трава,
Bm G A
В лесу шипит змея,
Bm G A
Плывут по небу облака,
G A
Высоко луна!
Bm G A
У пруда я их встретил,
Bm G A
Парни пили и ели -
Bm G A
Веселый пир в глуши лесной,
G A
Выпить все хотят со мной.

Припев:

D5 A5 B5 F#5 G5 A5 B5
E)-----------------------------------|
B)-----------------------------------|
G)-7-7-----4-4-----------------------|
D)-7-7-7-7-4-4-4-4-5-5-7-7-9-9-------|
A)-5-5-7-7-2-2-4-4-5-5-7-7-9-9-------|
E)-----5-5-----2-2-3-3-5-5-7-7-------|

D5 A5 B5 F#5 G5 A5 B5 A5 B5
E)-----------------------------------|---------|
B)-----------------------------------|---------|
G)-7-7-----4-4-----------------------|---------|
D)-7-7-7-7-4-4-4-4-5-5-7-7-9-9-------|-7-7-9-9-|
A)-5-5-7-7-2-2-4-4-5-5-7-7-9-9-------|-7-7-9-9-|
E)-----5-5-----2-2-3-3-5-5-7-7-------|-5-5-7-7-|

A D A Bm
Выпей с нами пива, парень,
F# G A
Не стесняйся, пей скорей!
Bm D A B
Ты поверь, уж мы-то знаем
F#5 G A
Толк в напитках, пей скорей,
A Bm
Пей не жалей!

Bm G A
Уклоняться не стал я,
Bm G A
выпил странного пива
Bm G A
Плывут по небу облака –
понесло меня.
Bm G A
Голова летит моя над землей.
Bm G A
Руки, ноги попрощались со мной.
Bm G A
А позже тело улетело,
G A
Боже, как это надоело!

Припев:

D5 A5 B5 F#5 G5 A5 B5
E)-----------------------------------|
B)-----------------------------------|
G)-7-7-----4-4-----------------------|
D)-7-7-7-7-4-4-4-4-5-5-7-7-9-9-------|
A)-5-5-7-7-2-2-4-4-5-5-7-7-9-9-------|
E)-----5-5-----2-2-3-3-5-5-7-7-------|

D5 A5 B5 F#5 G5 A5 B5 A5 B5
E)-----------------------------------|---------|
B)-----------------------------------|---------|
G)-7-7-----4-4-----------------------|---------|
D)-7-7-7-7-4-4-4-4-5-5-7-7-9-9-------|-7-7-9-9-|
A)-5-5-7-7-2-2-4-4-5-5-7-7-9-9-------|-7-7-9-9-|
E)-----5-5-----2-2-3-3-5-5-7-7-------|-5-5-7-7-|

A D A Bm
Выпей с нами пива, парень,
F# G A
Не стесняйся, пей скорей!
Bm D A B
Ты поверь, уж мы-то знаем
F#5 G A
Толк в напитках, пей скорей,
A Bm
Пей не жалей!
Bm G A
Говорила мне мать не зря:
Bm G A
Пить с чужими, сынок нельзя!
Bm G A
С людьми еще туда-сюда,
G A
С демонами - никогда!

Припев:

D5 A5 B5 F#5 G5 A5 B5
E)-----------------------------------|
B)-----------------------------------|
G)-7-7-----4-4-----------------------|
D)-7-7-7-7-4-4-4-4-5-5-7-7-9-9-------|
A)-5-5-7-7-2-2-4-4-5-5-7-7-9-9-------|
E)-----5-5-----2-2-3-3-5-5-7-7-------|

D5 A5 B5 F#5 G5 A5 B5 A5 B5
E)-----------------------------------|---------|
B)-----------------------------------|---------|
G)-7-7-----4-4-----------------------|---------|
D)-7-7-7-7-4-4-4-4-5-5-7-7-9-9-------|-7-7-9-9-|
A)-5-5-7-7-2-2-4-4-5-5-7-7-9-9-------|-7-7-9-9-|
E)-----5-5-----2-2-3-3-5-5-7-7-------|-5-5-7-7-|

A D A Bm
Выпей с нами пива, парень,
F# G A
Не стесняйся, пей скорей!
Bm D A B
Ты поверь, уж мы-то знаем
F#5 G A
Толк в напитках, пей скорей,
A Bm
Пей не жалей!

Solo:
B5 G5 A5 B5 G5 A5 - Rythm Guitar
E)----------------------------|
B)----------------------------|
G)----------------------------| [x2]
D)-----------4----2-4----/7~~-|
A)-2----5-----------|-2----5--|
E)----------------------------|

Bass:
Bm | Bm |Bm G Em F#
Bm | G A

Bm G A
Сувенир теперь моя голова –
Bm G A
Гладкий череп – в нем живые глаза
Bm G A
Замечательная пепельница, много денег стоит она
G A
Я нынче строг к себе, друзья – пиво пьют без меня.
Другие песни: